Maroon 5 - She Will Be Loved Chords & Tabs

 

She Will Be Loved Chords & Tabs

Maroon 5 Chords & Tabs

Version: 6 Type: Bass Tab 0 ratings
1 star 2 stars 3 stars 4 stars 5 stars
comments

She Will Be Loved Bass Tab

-------------------------------------------------------------------------------
			     She Will Be Loved-Maroon 5
-------------------------------------------------------------------------------

Tabbed By : lilflip1029	
e-mail: lilflip1029@yahoo.com

Tuning:standard tuning

if you cant really hear the bass...i find it's easier to hear it if you listen to 
the song with headphones on and maybe turn up the bass

verse(0:19)
G|---------------5---5--------3----------------------------------------------|
D|-------5---5----------------------3----------------------------------------|
A|---3-----------------------------------1---1----1--------------------------|
E|---------------------------------------------------------------------------|
    ...	he  was  al-ways    there  to  help her   she

G|----------------5---5----------3-------------------------------------------|
D|-------5---5------------------------3--------------------------------------|
A|---3-------------------------------------1----1----1-----------------------|
E|---------------------------------------------------------------------------|
	al-ways  belonged   to  some-one  else

G|----------------5----5-----3-----------------------------------------------|
D|--------5--5--------------------3------------------------------------------|
A|----3--------------------------------1----1--1-----------------------------|
E|---------------------------------------------------------------------------|
	     I  drove for  miles and miles and  
[ Tab from: http://www.guitartabs.cc/tabs/m/maroon_5/she_will_be_loved_btab_ver_6.html ]
G|----------------------5----5-----3-----------------------------------------|
D|--------------5---5--------------------3-----------------------------------|
A|--------3----------------------------------1---1---1-----------------------|
E|---------------------------------------------------------------------------|
      wound up     at     your    do...or   

G|-------------------5-----5------3------------------------------------------|
D|---------5----5-----------------------3------------------------------------|
A|----3----------------------------------------1-----1---1-------------------|
E|---------------------------------------------------------------------------|
	       ive  had   you     so   many  times  but

G|-----------------------5-----5--------3------------------------------------|
D|------------5----5---------------------------3-----------------------------|
A|------3---------------------------------------------1---1---1--------------|
E|---------------------------------------------------------------------------|
     somehow       i          want     more



Chorus
G|--------------------|------------------|------------------|-----------------|
D|--------------------|------------------|------------------|-----------------|
A|----6---6-6-6-6-6---|---1---1-1-1-1-1--|---3---3-3-3-3-3--|-----------------|
E|--------------------|------------------|------------------|6---6-6-6-6-6----|

G|------------------|------------------|------------------|---------------------|
D|------------------|------------------|------------------|---------------------|
A|---6---6-6-6-6-6--|---1---1-1-1-1-1--|---3---3-3-3-3-3--|---------------------|
E|------------------|------------------|------------------|---4---4-4-4-4-4-----|

G|-----------------|------------------|------------------|-------------------|
D|-----------------|------------------|------------------|-------------------|
A|--6---6-6-6-6-6--|---1---1-1-1-1-1--|---3---3-3-3-3-3--|-------------------|
E|-----------------|------------------|------------------|----4---4-4-4-4-4--|


REPEAT VERSE

BRIDGE-same as verse

END CHORUS-repeat chorus 2x/3x?
Comments