Maroon 5 - She Will Be Loved Chords & Tabs

 

She Will Be Loved Chords & Tabs

Maroon 5 Chords & Tabs

Version: 5 Type: Bass Tab 0 ratings
1 star 2 stars 3 stars 4 stars 5 stars
comments

She Will Be Loved Bass Tab

she will be loved
maroon 5
bass tab
standad E tuning:

intro/verses:
|-----------------------------|
|-----------------------------|
|-3--3-3-3-3----1-1-1-1-------|
|-----------------------------|
[ Tab from: http://www.guitartabs.cc/tabs/m/maroon_5/she_will_be_loved_btab_ver_5.html ]
chorus:
|---------------------------------------------------------------------|
|---------------------------------------------------------------------|
|-6-6-6-6-6-6-6-6-------------------3-3-3-3-3-3-3-3-------------------|
|------------------6-6-6-6-6-6-6-6-------------------4-4-4-4-4-4-4-4--|

bridge:
|--------------------------------------------------------|------|
|--------------------------------------------------------|------|
|-3-3-3-3-3-3-3-3--1-1-1-1-1-1-1-1-REPEAT 4X THEN END W/-|------|
|--------------------------------------------------------|---4--|

intro
verse 1
chorus
verse 2
bridge
chorus til the song ends
Comments