Maroon 5 - She Will Be Loved Chords & Tabs

 

She Will Be Loved Chords & Tabs

Maroon 5 Chords & Tabs

Version: 4 Type: Bass Tab 0 ratings
1 star 2 stars 3 stars 4 stars 5 stars
comments

She Will Be Loved Bass Tab

SHE WILL BE LOVE:MAROON 5
Tablature By:leVon loPez
E_mail:guitarlevongear@yah00.com

intro:
G||-------------------------------------------------------------------------|
D||-------------------------------------------------------------------------|
A||----5------5555------------3-3--3---3-----5---5555------------3----3---3-|
E||-------------------------------------------------------------------------|

G||-------------------------------------------------------------------------|
D||-------------------------------------------------------------------------|
A||----5------5555------------3-3--3---3-----5---5555------------3----3---3-|
E||-------------------------------------------------------------------------|

              Beauty queen of only eighteen..she hadsome trouble with her self

G||-------------------------------------------------------------------|
D||-------------------------------------------------------------------|
A||-----5-----5555----------3-----3--3----3----------5----5555--------|
E||-------------------------------------------------------------------|
     ..       he was always there to help her..      she..alway

G||-------------------------------------------------------------------|
D||-------------------------------------------------------------------|
A||-------------5--33------3--------5-5-5555--------3----------3------|
E||-------------------------------------------------------------------|
       belonged to someone else..       I drove for miles..and miles
[ Tab from: http://www.guitartabs.cc/tabs/m/maroon_5/she_will_be_loved_btab_ver_4.html ]
G||---------------------------------------------------------------------|
D||---------------------------------------------------------------------|
A||----5-555----------------3------3/5---5-555-----------3-3-3-----3----|
E||---------------------------------------------------------------------|
       and WoUnd up at your door...      I'vE had you so many time but..
G||-----------------------------------------------|
D||-----------------------------------------------|
A||----5-------555----3-3333----------------------|
E||-----------------------------------------------|
       somehow i want more...
chOrus:
G||------------------------------------------------------------------------|
D||----3-3-333333----------------------------------------------------------|
A||------------------------------3333333---55555555------------------------|
E||------------------------------------------------------------------------|
           I dOn't mind spending everyday  Out on your corner in the
G||-------------------------------------------------------------------------|
D||-------------------------------------------------------------------------|
A||--------1111111------------------------------------3333333---------------|
E||------------------------11111111-----------------------------------------|
           pouring rain... loOk for the girl with the broken smile...
G||-------------------------------------------------------------------------|
D||-----------------------------------------------------3333333-------------|
A||--------555555555---------------1111111-------111-------------3333333----|
E||-------------------------------------------------------------------------|
           AsK her if she wants to stay awhile...And she will be loved
G||-------------------------------------------------------------------------|
D||-------------------------------------------------------------------------|
A||--------333-555555----11111111-------------------------------------------|
E||-------------------------------------------------------------------------|
           shE will...   be loved...
"Repeat same rythm"

Tap on my window knock on my door
I want to make you feel beautiful
I know I tend to get insecure
It doesn't matter anymore

It's not always rainbows and butterflies
It's compromise that moves us along
My heart is full and my door's always open
You can come anytime you want

I don't mind spending everyday
Out on your corner in the pouring rain
Look for the girl with the broken smile
Ask her if she wants to stay awhile
And she will be loved
She will be loved

I know where you hide
Alone in your car
Know all of the things that make you who you are
I know that goodbye means nothing at all
Comes back and begs me to catch her every time she falls
Comments