Maroon 5 - She Will Be Loved Chords & Tabs

 

She Will Be Loved Chords & Tabs

Maroon 5 Chords & Tabs

Version: 2 Type: Bass Tab 0 ratings
1 star 2 stars 3 stars 4 stars 5 stars
comments

She Will Be Loved Bass Tab

   
Band  : Maroon 5
Song  : She Will Be Loved (Bass Tablature)
Album : Songs About Jane
Tuning: Standard (E A D G)
Tabbed By: TroaLance17 

Intro:
G|---------------------------------------------------||
D|---------------------------------------------------||
A|-2--2-2-2------------2--2-2-2----------------------||
E|-----------5--5-5-5-----------5--5-5-5-------------||

Verse:
G|----------------------------------------------------------------------||
D|----------------------------------------------------------------------||
A|-2--2-2-2-----------2--2-2-2------------2--2-2-2------------2--2-2-2--||
E|----------5--5-5-5------------5--5-5-5------------5--5-5-5------------||

G|-------------------------------------------------------------------||
D|-------------------------------------------------------------------||
A|------------2--2-2-2-------------2--2-2-2------------2--2-2-2------||
E|-5--5-5-5-------------5--5-5-5-------------5--5-5-5----------------||

G|----------------------------------------||
D|----------------------------------------||
A|-----------2--2-2-2---------------------||
E|-5--5-5-5------------5--5-5-5-----------||

Chorus:
G|---------------------------------------------------------||
D|---------------------------------------------------------||
A|-------------------------------------2-2-2-2-2-2-2-2-----||
E|--0-0-0-0-0-0-0-0--5-5-5-5-5-5-5-5-----------------------||

G|----------------------------------------------------------------------||
D|----------------------------------------------------------------------||
A|-----------------------------------------------------2-2-2-2-2-2-2-2--||
E|--3-3-3-3-3-3-3-3--0-0-0-0-0-0-0-0--5-5-5-5-5-5-5-5-------------------||
[ Tab from: http://www.guitartabs.cc/tabs/m/maroon_5/she_will_be_loved_btab_ver_2.html ]
G|-------------------------------------------------------------------||
D|-------------------------------------------------------------------||
A|---------------------------------------2--2-2-2--------------------||
E|-3-3-3-3-3-3-3-3--0--0-0-0--5--5-5-5--------------3--3-3-3---------||

Verse 2:
G|----------------------------------------------------------------------||
D|----------------------------------------------------------------------||
A|-2--2-2-2-----------2--2-2-2------------2--2-2-2------------2--2-2-2--||
E|----------5--5-5-5------------5--5-5-5------------5--5-5-5------------||

G|-------------------------------------------------------------------||
D|-------------------------------------------------------------------||
A|------------2--2-2-2-------------2--2-2-2------------2--2-2-2------||
E|-5--5-5-5-------------5--5-5-5-------------5--5-5-5----------------||

G|----------------------------------------||
D|----------------------------------------||
A|-----------2--2-2-2---------------------||
E|-5--5-5-5------------5--5-5-5-----------||
(Repeat Chorus)

Verse 3:
G|----------------------------------------------------------------------||
D|----------------------------------------------------------------------||
A|-2--2-2-2-----------2--2-2-2------------2--2-2-2------------2--2-2-2--||
E|----------5--5-5-5------------5--5-5-5------------5--5-5-5------------||

G|-------------------------------------------------------------------||
D|-------------------------------------------------------------------||
A|------------2--2-2-2-------------2--2-2-2------------2--2-2-2------||
E|-5--5-5-5-------------5--5-5-5-------------5--5-5-5----------------||

G|----------------------------------------||
D|----------------------------------------||
A|-----------2--2-2-2---------------------||
E|-5--5-5-5------------5--5-5-5-----------||
(Repeat Chorus)
Comments