Maroon 5 - Secret Chords & Tabs

 

Secret Chords & Tabs

Maroon 5 Chords & Tabs

Version: 3 Type: Tab 0 ratings
1 star 2 stars 3 stars 4 stars 5 stars
comments

Secret Tab

Hi,Im EJ Dalupang
this is my first time here and I want to add some tablature.Pls. rate it
"Secret" by Maroon 5
I just got this last night
1st Intro "2nd piano"
2nd Intro "guitar"

E----------------------------|------------------------------|
B----------------------------|------------------------------|
G-------------5-5--5---------|--------5-5--5----------------|
D-------------5-5--5---------|--------4-4--4----------------|
A----------------------------|------------------------------|
E----------------------------|------------------------------|
[ Tab from: http://www.guitartabs.cc/tabs/m/maroon_5/secret_tab_ver_3.html ]
E----------------------------|------------------------------|
B----------------------------|------------------------------|
G------------5-5--5----------|--------5-5--5-----5----------|
D------------3-3--3----------|--------2-2--2-----4----------|
A----------------------------|------------------------------|
E----------------------------|------------------------------|

Verse
E----------------------------|------------------------------|
B--------------------5-------|------------------------------|
G-------------5-5--5---------|--------5-5--5----------------|
D-------------5-5--5---------|--------4-4--4----------------|
A----------------------------|------------------------------|
E----------------------------|------------------------------|

E----------------------------|------------------------------|
B----------------------------|------------------------------|
G------------5-5--5----------|--------5-5--5-----5----------|
D------------3-3--3----------|--------2-2--2-----4----------|
A----------------------------|------------------------------|
E----------------------------|------------------------------|

Just repeat it from intro to chorus.And to this song for the timing
Enjoy!!!!!
-EJ
for more information, visit my e-mail at pharmecoepia_0@yahoo.com
Comments