Maroon 5 - Secret Chords & Tabs

 

Secret Chords & Tabs

Maroon 5 Chords & Tabs

Version: 1 Type: Tab 0 ratings
1 star 2 stars 3 stars 4 stars 5 stars
comments

Secret Tab

Be wary, this is my first tab ever and since it wasn't up i decided to share.
it's right, im pretty sure of that. thanks for looking. peace.
Not really the whole song...just the basic structure and you can take it from there.

Normal Tuning
listen for the rythms cause i am not gonna write them here.
[ Tab from: http://www.guitartabs.cc/tabs/m/maroon_5/secret_tab.html ]
Intro/Verse/Bridge
E----------------------------------------------------------------
B---5-----5-----5-----5------------------------------------------
G---5-----5-----5-----5------------------------------------------
D---5-----4-----3-----2------------------------------------------
A---0-----0-----0-----0------------------------------------------
E----------------------------------------------------------------

Chorus
E---0-----0----(0)----0-----0-----0----(0)----0-----1-----0--------
B---1-----0-----3-----1-----1-----0-----3-----0-----1-----0--------
G---2-----2-----2-----2-----2-----2-----2-----1-----2-----1--------
D---x-----1-----x-----2-----x-----1-----x-----2-----3-----2--------
A---3-----2-----1-----0-----3-----2-----1-----2-----3-----2--------
E---------------------------------------------0-----1-----0--------

if you got any questions email me at boostedex@hotmail.com. thanks! peace.

the name is Brandon.
Comments