Maroon 5 - Not Coming Home Chords & Tabs

 

Not Coming Home Chords & Tabs

Maroon 5 Chords & Tabs

Version: 1 Type: Tab 1 rating
1 star 2 stars 3 stars 4 stars 5 stars
comments

Not Coming Home Tab

   
Artist: Maroon5
Song: Not Coming Home

Tabbed by Kevin Ebaugh



Verse:
   
   E---------------------------------
   B---------------------------------
   G---------------------------------
   D------2-----2-4-2----------------
   A--2-4---2-4-------0---0-0-0------
   E----------------------------4----

	
[ Tab from: http://www.guitartabs.cc/tabs/m/maroon_5/not_coming_home_tab.html ]
Chrorus:
      
	And does it make...   ...You won't find me cause I'm not coming home...
       
       C#m                                 Cm
   E----9----------------------------------8----------------------------V---
   B----9----------------------------------8----------------------------E---
   G----9----------------------------------8----------------------------R---
   D---(11)-------------------------------(10)--------------------------S---
   A--------------------------------------------------------------------E---
   E------------------------------------------------------------------------
Comments