Maroon 5 - Not Coming Home Chords & Tabs

 

Not Coming Home Chords & Tabs

Maroon 5 Chords & Tabs

Version: 2 Type: Bass Tab 0 ratings
1 star 2 stars 3 stars 4 stars 5 stars
comments

Not Coming Home Bass Tab

Maroon 5
Not Coming Home
Bass Tab
Standard Tuning (EADG)
Tabbed by: Chordmiester
e-mail: kittenkatz87@yahoo.co.uk



(Verse)
G|--------------------------------------|
D|-------2--------2-4-2-----------------|
A|---3-4------3-4-----------------------|
E|-----------------------5---5-5-5-4----|

(Chorus)
G|--------------------------------------|
D|--------------------------------------|
A|--0-2-3-4--(X4)---4---3---------------|
E|--------------------------------------|
[ Tab from: http://www.guitartabs.cc/tabs/m/maroon_5/not_coming_home_btab_ver_2.html ]
(Bridge)
G|----------------------------------------------------------|
D|----------------------------------------------------------|
A|--4-6-3-4-0-2-3-4--0-2-3-4-0-2-3-4--0-2-3-4-0-2-3-4---4-3-|
E|----------------------------------------------------------|

(Ending)
G|----------------------------------|
D|------2------2--------------------|
A|--3-4----3-4-----4-3--------------|
E|----------------------------------|

(End)
G|-------|
D|-------|
A|---4---|
E|-------|



(Verse)x5
(Chorus)x1
(Verse)x5
(Chorus)x1
(Verse)x2
(Bridge)x1
(Ending)x2
(End)x1
Comments