Maroon 5 - Moves Like Jagger Chords & Tabs

 

Maroon 5 Chords & Tabs

Version: 1 Type: Tab 0 ratings
1 star 2 stars 3 stars 4 stars 5 stars
comments

Moves Like Jagger Tab

-----------------------------------------------------------------
MOVES LIKE JAGGER (feat. Christina Aguilera) - Maroon 5
-----------------------------------------------------------------
Tabbed by: Frank Truei
Email: truei.frank@gmail.com

Tuning: Standard (EADGBe)

This song is very easy.  Literally goes through these two chord changes over and over 
again, with different effects added during the verse and bridge.  Here it is (use muting 
and chucks as you want):

[ Tab from: http://www.guitartabs.cc/tabs/m/maroon_5/moves_like_jagger_tab.html ]
e|--------------------------|
B|14h15-15-15--15----15-15--|
G|14----14-14--14----14-14--|
D|14h16-16-16--16----16-16--| x4  (during choruses you can hit the
A|14----14-14--14----14-14--|       14th fret [f# note] on the e string)
E|--------------------------|

e|7-----7--7---7-----7--7---|
B|7h8---8--8---8-----8--8---|
G|7-----7--7---7-----7--7---| x4
D|7h9---9--9---9-----9--9---|
A|7-----7--7---7-----7--7---|
E|--------------------------|


Again, cycle between those two over and over again, and thats REALLY the whole song!  Enjoy!

PS:

Just for fun if you want to know the notes of the whistley part. (you may want to 
rearrange it with your own bends and etc.)

e|---------19-17-----------------------|
B|---------------19-17-15-15--17-------|
G|16-18-19-----------------------16----|
D|-------------------------------------|
A|-------------------------------------|
E|-------------------------------------|
Comments