Maroon 5 - Harder To Breathe Chords & Tabs

 

Harder To Breathe Chords & Tabs

Maroon 5 Chords & Tabs

Version: 6 Type: Tab 0 ratings
1 star 2 stars 3 stars 4 stars 5 stars
comments

Harder To Breathe Tab

   
-------------------------------------------------------------------------------
			     harder to breathe -maroon 5
-------------------------------------------------------------------------------
Tabbed by:courtjester31
Email:

Tuning:STANDARD
this is pretty close to how it goes at least from the way my ears hear it hope ya like 
its how we play it,,,,,
Jester ;)

e|---------------------------------------------------------------------------|
B|---------------------------------------------------------------------------|
G|---------------------------------------------------------------------------|
D|-----------------------------------2-4-------------------------------------|
A|-----2-4----2-4----2-4---2-4---2-4-----2-4---2-4-----2-4--2----------------|
E|----------------4------------4--------------------4------------------------|

e|---------------------------------------------------------------------------|
B|---------------------------------------------------------------------------|
G|-----9-----------7-------------------9-----------7-------------------------|
D|-----9-----------7-------------------9-----------7-------------------------|
A|4-------------2-----------------4------------2-----------------------------|
E|-------4-4444---------2-2-2402--------4-4-444-------222402H4---------------|
[ Tab from: http://www.guitartabs.cc/tabs/m/maroon_5/harder_to_breathe_tab_ver_6.html ]
e|---------------------------------------------------------------------------|
B|---------------------------------------------------------------------------|
G|----9------------7---------------------------------------------------------|
D|----9------------7---------------------------------------------------------|
A|4------------2---------------4---------------------------------------------|
E|------4-4444----------2-22420----------------------------------------------|

e|---------------------------------------------------------------------------|
B|---------------------------------------------------------------------------|
G|---------------------------------------------------------------------------|
D|-----------------------------------------2-4-------------------------------|
A|-----2-4xxxxxx2-4xx-xx-2-4xxxxxx2-4---2-4-----2-4xxxxxx--2-4xx-xx4xxxxxx4--|
E|--------xxxxxx---xx4xx----xxxxxx----4------------xxxxxx-----xx4xx-xxxxxx---|

e|---------------------------------------------------------------------------|
B|---------------------------------------------------------------------------|
G|-----9-----------7-------------------9-----------7-------------------------|
D|-----9-----------7-------------------9-----------7-------------------------|
A|4-------------2-----------------4------------2-----------------------------|
E|-------4-4444---------2-2-2402--------4-4-444-------222402H4---------------|

e|---------------------------------------------------------------------------|
B|---------------------------------------------------------------------------|
G|----9------------7---------------------------------------------------------|
D|----9------------7---------------------------------------------------------|
A|4------------2---------------4---------------------------------------------|
E|------4-4444----------2-22420----------------------------------------------|
| /  slide up
| \  slide down
| h  hammer-on
| p  pull-off
| ~  vibrato
| +  harmonic
| x  Mute note

===============================================================================
Comments