Maroon 5 - Harder To Breathe Chords & Tabs

 

Maroon 5 Chords & Tabs

Version: 5 Type: Tab 0 ratings
1 star 2 stars 3 stars 4 stars 5 stars
comments

Harder To Breathe Tab

Tabbed by:NobodysListenin
Tuning:standard

yay! okay, i whipped this out pretty quick, so it's probably not totally acurate,
but i think it's pretty close. i tried to get the timing down kinda but if you
just listen to the song it's really easy to pick up. MAROON 5 ROCKS! :)

verse 1:
e|----------------------------------------------------------------|
B|----------------------------------------------------------------|
G|-46--46-----46--46--2-4-6-9-11---46--46-----46---6--2-4-6-9-11--|
D|-46--46--6--46--46--2-4-6-9-11---46--46--6--46---6--2-4-6-9-11--|
A|-24--24--6--24--24----2-4-7-9----24--24--6--24---4----2-4-7-9---|
E|---------4-------------------------------4----------------------|

e|----------------------------------------------------------------|
B|----------------------------------------------------------------|
G|-46--46-----46--46--2-4-6-9-11---46--46-----46---6--------------|
D|-46--46--6--46--46--2-4-6-9-11---46--46--6--46---6--------------|
A|-24--24--6--24--24----2-4-7-9----24--24--6--24---4--------------|
E|---------4-------------------------------4----------------------|

chorus:
e|---------------------------------------------------------------------------|
B|---------------------------------------------------------------------------|
G|-6--------4-----------6--------4-----------------------------------6----6--|
D|-6--66-6--4--44-2424--6--66-6--4--44--24242--4--66-6--2--44--2542--6----6--|
A|-4--66-6--2--44-2424--4--66-6--2--44--24242--4--66-6--2--44--2542--4----4--|
E|----44-4-----22--2-2-----44-4-----22---2-2------44-4-----22---32-----------|
[ Tab from: http://www.guitartabs.cc/tabs/m/maroon_5/harder_to_breathe_tab_ver_5.html ]
verse 2:
e|----------------------------------------------------------------|
B|----------------------------------------------------------------|
G|-46--46-----46--46--2-4-6-9-11---46--46-----46---6--------------|
D|-46--46--6--46--46--2-4-6-9-11---46--46--6--46---6--------------|
A|-24--24--6--24--24----2-4-7-9----24--24--6--24---4--------------|
E|---------4-------------------------------4----------------------|

chorus:
e|-------------------------------------------------------------------|
B|-------------------------------------------------------------------|
G|-6--------4-----------6--------4-----------------------------------|
D|-6--66-6--4--44-2424--6--66-6--4--44--24242--4--66-6--2--44--2542--|
A|-4--66-6--2--44-2424--4--66-6--2--44--24242--4--66-6--2--44--2542--|
E|----44-4-----22--2-2-----44-4-----22---2-2------44-4-----22---32---|

e|----------------------|
B|----------------------|
G|-6--66-6-----66-------|
D|-6--66-6--6--66-2542--|
A|-4--44-4--6--44-2542--|
E|----------4------32---|

bridge:
e|-------------|
B|-------------|
G|-66--66--46--|
D|-66--66--46--| play this 3X, then play...
A|-44--44--24--|
E|-------------|

e|--------------------------|
B|--------------------------|
G|-66--66--469--66--66--46--|
D|-66--66--469--66--66--46--| play 2X
A|-44--44--247--44--44--24--|
E|--------------------------|

chorus:
e|-------------------------------------------------------------------|
B|-------------------------------------------------------------------|
G|-6--------4-----------6--------4-----------------------------------|
D|-6--66-6--4--44-2424--6--66-6--4--44--24242--4--66-6--2--44--2542--|
A|-4--66-6--2--44-2424--4--66-6--2--44--24242--4--66-6--2--44--2542--|
E|----44-4-----22--2-2-----44-4-----22---2-2------44-4-----22---32---|

e|-------------------------------------|
B|-------------------------------------|
G|-6--66-6-----66--------6----6----46--|
D|-6--66-6--6--66-2542---6----6----46--|
A|-4--44-4--6--44-2542---4----4----24--|
E|----------4------32------------------|

that's it! i hope you like it. let me know what you think of it. peace!
Comments