Maroon 5 - Harder To Breathe Chords & Tabs

 

Harder To Breathe Chords & Tabs

Maroon 5 Chords & Tabs

Version: 4 Type: Tab 0 ratings
1 star 2 stars 3 stars 4 stars 5 stars
comments

Harder To Breathe Tab

e|------------------------------------------------------------------ 
B|------------------------------------------------------------------ 
G|------------------------------------------------------------------ 
D|------------------------------------------------------------2---4-
A|--2--4------2--4-------2--4------2--4---------2--4----------------
E|----------------------4------------------------4------------------

Verse:
 eb|-------------------------------------------
 Bb|-------------------------------------------
 Gb|-------------------------------------------
 Db|------------------------------------3-5----
 Ab|--3-5---3-5---0---3-5---3-5---0-3-5--------
 Eb|-------------------------------------------

 eb|-------------------------------------------
 Bb|-------------------------------------------
 Gb|-------------------------------------------
 Db|------------------------------------3-5----
 Ab|--3-5---3-5---0---3-5-----5---0-3-5--------
 Eb|-------------------------------------------

 eb|-------------------------------------------------------
 Bb|-------------------------------------------------------
 Gb|-------------------------------------------------------
 Db|-------------------------------------------------3-5---
 Ab|--3-5--------3-5----0-----3-5--------3-5---0-3-5-------
 Eb|-------------------------------------------------------

 eb|----------------------------------------
 Bb|----------------------------------------
 Gb|----------------------------------------
 Db|----------------------------------------
 Ab|--3-5--------3-5----0-----3-5--------5--
 Eb|----------------------------------------
[ Tab from: http://www.guitartabs.cc/tabs/m/maroon_5/harder_to_breathe_tab_ver_4.html ]
 Chorus:
  eb|--------------------------------------------------------------
  Bb|--------------------------------------------------------------
  Gb|-----------7--7-7-7----------------5--5-5-5------------------
  Db|-----------7--7-7-7--7--7--7--7-7--5--5-5-5--5--5--5-5--------
  Ab|-----------5--5-5-5--7--7--7--7-7--3--3-3-3--5--5--5-5--------  3X
  Eb|---------------------5--5--5--5-5------------3--3--3-3--------

 Play second time
 Eb|-------------------------------------------------------
 Bb|-------------------------------------------------------
 Gb|-------------------------------------------------------
 Db|------XXXXXX-----XX---XXX-----XXXXXX-----X-------3-5---
 Ab|--3-5-XXXXXX-3-5-XX-0-XXX-3-5-XXXXXX-3-5-X-0-3-5-------
 Eb|------XXXXXX-----XX---XXX-----XXXXXX-----X-------------

 eb|----------------------------------------
 Bb|----------------------------------------
 Gb|----------------------------------------
 Db|------XXXXXX-----XX---XXX-----XXXXXX----
 Ab|--3-5-XXXXXX-3-5-XX-0-XXX-3-5-XXXXXX-5


Solo:
eb|---------------------------------------------------------------
 Bb|--------------------------------------------------------------
 Gb|-----------7--7-7-7-------------------------------------------
 Db|-----------7--7-7-7--7--7--7--7-7\-555------------------------
 Ab|-----------5--5-5-5--7--7--7--7-7\-555------------------------  
 Eb|---------------------5--5--5--5-5\-333------------------------


This is what I think it is but if you can find a better way to play it please
e-mail me at  adm_waraug@hotmail.com 

Chorus:
 eb|--------------------------------------------------------------
 Bb|--------------------------------------------------------------
 Gb|-----------7--7-7-7----------------5--5-5-5------------------
 Db|-----------7--7-7-7--7--7--7--7-7--5--5-5-5--5--5--5-5--------
 Ab|-----------5--5-5-5--7--7--7--7-7--3--3-3-3--5--5--5-5--------  
 Eb|---------------------5--5--5--5-5------------3--3--3-3--------
Comments