Maroon 5 - Harder To Breathe Chords & Tabs

 

Harder To Breathe Chords & Tabs

Maroon 5 Chords & Tabs

Version: 3 Type: Tab 0 ratings
1 star 2 stars 3 stars 4 stars 5 stars
comments

Harder To Breathe Tab

by jivmaster2000
Standard Tuning
Very simple and fun to play


Verse
--------------------|-----------------------
--------------------|-----------------------
--------------------|-----------------------
--------------------|-------------------2-4-
--2-4----2-4--------|--2-4----2-4---2-4-----
-------------4------|-------------4---------

Chorus

-------------------------------
-------------------------------
--6-------------4--------------
--6--6-6-x-x-6--4--4-4---4---4-
--4--6-6-x-x-6--2--4-4---4---4-
-----4-4-x-x-4-----2-2-0-2-0-2-


Solo(over this scale).....improvise
[ Tab from: http://www.guitartabs.cc/tabs/m/maroon_5/harder_to_breathe_tab_ver_3.html ]
-----------------------9-12-                        ------------------------
-------------------9-12-----                        ------------------------
---------------9-11---------    it's something like --11b-11b---11r9-11r9---
-----------9-11-------------                        ----------------------11
-------9-11-----------------                        ------------------------
--9-12----------------------                        ------------------------


and then
--14b-14b--r12-----
---------------14--
-------------------
-------------------
-------------------
-------------------
Comments