Maroon 5 - Harder To Breathe Chords & Tabs

 

Harder To Breathe Chords & Tabs

Maroon 5 Chords & Tabs

Version: 2 Type: Tab 1 rating
1 star 2 stars 3 stars 4 stars 5 stars
comments

Harder To Breathe Tab

Harder to breathe
Maroon 5

This has the all the riffs and timings
I have not seen posted in other versions


Tab: Slugfest

Verse        4x		   3x
---------------------------|----------
---------------------------|----------
---------------------------|----------
---------------------------|------2h4-  
--2-4---2-4-----2-4---2-4--|---2h4----
-------------4-------------|-4--------


Chorus	   3x	     1st	        2nd       3rd
-------------------|-----------|-----------|---------|
-------------------|-----------|-----------|---------|
--6---------4------|-----------|-----------|---------|
--6---666---4---44-|-----------|-----------|---------|
--4---666---2---44-|-----------|-----------|---------|
------444-------22-|-0-2-3-2-0-|-0-2-0-2-0-|-0-2-3-0-|


Verse		2x		1x
---------------------------|----------
---------------------------|----------
---------------------------|----------
---------------------------|------2h4-  
--2-4---2-4-----2-4---2-4--|---2h4----
-------------4-------------|-4--------

[ Tab from: http://www.guitartabs.cc/tabs/m/maroon_5/harder_to_breathe_tab_ver_2.html ]
Chorus	  3x          1 & 3        2	  4th Time
-------------------|-----------|-----------|---------------|---------|
-------------------|-----------|-----------|---------------|---------|
--6---------4------|-----------|-----------|-6--666-----66-|---------|
--6---666---4---44-|-----------|-----------|-6--666--6--66-|---------|
--4---666---2---44-|-----------|-----------|-4--444--6--44-|---------|
------444-------22-|-0-2-3-2-0-|-0-2-0-2-0-|---------4-----|-0-2-3-0-|


Bridge		4x
--------------------------------
--------------------------------
--66--66----4\6-6--66----4\6----
--66--66----4\6-6--66----4\6----
--44--44--0-2\4-4--44--0-2\4----
--------------------------------


Chorus	  3x          1 & 3        2	  4th Time
-------------------|-----------|-----------|---------------|---------|
-------------------|-----------|-----------|---------------|---------|
--6---------4------|-----------|-----------|-6--666-----66-|---------|
--6---666---4---44-|-----------|-----------|-6--666--6--66-|---------|
--4---666---2---44-|-----------|-----------|-4--444--6--44-|---------|
------444-------22-|-0-2-3-2-0-|-0-2-0-2-0-|---------4-----|-0-2-3-0-|	
Comments