Maroon 5 - Harder To Breathe Chords & Tabs

 

Maroon 5 Chords & Tabs

Version: 1 Type: Tab 6 ratings
1 star 2 stars 3 stars 4 stars 5 stars
comments

Harder To Breathe Tab

This is the REAL version...the first one has an extra note 
in it and it messes it up.

Harder to breathe
Maroon 5


First Verse
-------------------------------------
-------------------------------------
-------------------------------------  (3x)
---------------------------------2h4-  
--2-4---2-4-----2-4---2-4-----2h4----
-------------4--------------4--------


Chorus
-------------------------------------
-------------------------------------
--6-------4--------------------------
--6---6---4---4----------------------
--4---6---2---4----------------------
------4-------2----------------------

[ Tab from: http://www.guitartabs.cc/tabs/m/maroon_5/harder_to_breathe_tab.html ]
Second Verse
-------------------------------------
-------------------------------------
-------------------------------------  (2x)
---------------------------------2h4-  
--2-4---2-4-----2-4---2-4-----2h4----
-------------4--------------4--------
-------------------------------------


Chorus
-------------------------------------
-------------------------------------
--6-------4--------------------------
--6---6---4---4----------------------
--4---6---2---4----------------------
------4-------2----------------------


Bridge
-------------------------------------
-------------------------------------
--6---------------------------------- 
--6--6-------------------------------
--4--6-------------------------------
-----4------------------------------- 


Chorus
-------------------------------------
-------------------------------------
--6-------4--------------------------
--6---6---4---4----------------------
--4---6---2---4----------------------
------4-------2----------------------

End.


Thats the order of the song too.
first verse
Chorus
second Verse
Chorus
Bridge
Chours

Rock On!
Comments