Maroon 5 - Goodnight Godnight Chords & Tabs

 

Goodnight Godnight Chords & Tabs

Maroon 5 Chords & Tabs

Version: 1 Type: Tab 0 ratings
1 star 2 stars 3 stars 4 stars 5 stars
comments

Goodnight Godnight Tab

   
Artist: Maroon 5
Song: Goodnight Goodnight
Album: It won’t be soon before long

This is the intro and the first verse, I dunno what the chorus is yet, but maybe in the 
The timing is a bit funky so you’ll have to work it out as best you can from my tab.
I’ve put on top of the score the finger placements I used ,in chords, hope it helps.

Capo on 3	All finger placements and chord names are relative to the capo.


(0.00)	G#m			    G#m			    Emaj 7
e|-----------------------------------------------------------------------------|
B|-----------------------------------------------------------------------------|
G|----------4---------------------3----------------------4---------------------|
D|-------6—(6)--6-----6--------6—(6)--6----6—---------6-(6)--6-----6---------6-|
A|----6------------6--------6------------6---------6------------6---------6----|
E|-4----------------------4---------------------0----------------------0-------|

       E maj7b5
e|---------------|
B|---------------|
G|---3-----------|
D|--(6)-6----6---|
A|--------6------|
E|---------------|
[ Tab from: http://www.guitartabs.cc/tabs/m/maroon_5/goodnight_godnight_tab.html ]
(0.10)	G#m			    G#m			    Emaj 7
e|-----------------------------------------------------------------------------|
B|-----------------------------------------------------------------------------|
G|----------4---------------------3----------------------4---------------------|
D|-------6—(6)--6-----6--------6—(6)--6----6—---------6-(6)--6-----6---------6-|
A|----6------------6--------6------------6---------6------------6---------6----|
E|-4----------------------4---------------------0----------------------0-------|
You left me hanging from a thread…			I lick my wounds…
Her hair was pressed against…				In reach by things I said…

       E maj7b5
e|---------------|
B|---------------|
G|---3-----------|
D|--(6)-6----6---|
A|--------6------|
E|---------------|


(0.20)	 B			B maj 9#11(no 3rd)
E|---------------------------------------------|
B|---------------------------------------------|
G|-----------8--------------------6------------|
D|--------9-(9)-9----9---------9-(9)-9-----9---|
A|-----9----------9---------9-----------9------|
E|--7--------------------6---------------------|
Something’s gotta change…
Something’s gotta change…

Repeat without intro.

Tabbed by: Joey
Comments