Maroon 5 - Cant Stop Chords & Tabs

 

Cant Stop Chords & Tabs

Maroon 5 Chords & Tabs

Version: 1 Type: Tab 0 ratings
1 star 2 stars 3 stars 4 stars 5 stars
comments

Cant Stop Tab

Drop D Tuning

Main Riff:

e|---------------------------------------------------------------------------------|
B|---------------------------------------------------------------------------------|
G|---------------------------------------------------------------------------------|
D|---7---10-10---7--9----7--10-10--7--9--------------------------------------------|
A|---7---10-10---7--9----7--10-10--7--9--------------------------------------------|
D|---7---10-10---7--9----7--10-10--7--9--------------------------------------------|

Alternate Riff:

e|---------------------------------------------------------------------------------|
B|---------------------------------------------------------------------------------|
G|---------------------------------------------------------------------------------|
D|---7---10-10---7--9--5-5---7--10-10--7--9----------------------------------------|
A|---7---10-10---7--9--5-5---7--10-10--7--9----------------------------------------|
D|---7---10-10---7--9--5-5---7--10-10--7--9----------------------------------------|


Chorus:

Play x2
e|---------------------------------------------------------------------------|
B|---------------------------------------------------------------------------|
G|---------------------------------------------------------------------------|
D|----9--9-12--9-10/6---6--6-9--6-7----10--12--14--7---3---6--6-9--6-7-------|
A|----9--9-12--9-10/6---6--6-9--6-7----10--12--14--7---3---6--6-9--6-7-------|
D|----9--9-12--9-10/6---6--6-9--6-7----10--12--14--7---3---6--6-9--6-7-------|

Pre Bridge:

e|---------------------------------------------------------------------------|
B|---------------------------------------------------------------------------|
G|---------------------------------------------------------------------------|
D|----9--9-12--9-10/6---6--6-9--6-7----10--12--14--7---3---6--6-9--6-7-------|
A|----9--9-12--9-10/6---6--6-9--6-7----10--12--14--7---3---6--6-9--6-7-------|
D|----9--9-12--9-10/6---6--6-9--6-7----10--12--14--7---3---6--6-9--6-7-------|
[ Tab from: http://www.guitartabs.cc/tabs/m/maroon_5/cant_stop_tab.html ]
e|---------------------------------------------------------------------|
B|---------------------------------------------------------------------|
G|---------------------------------------------------------------------|
D|----9--9-12--9-10/6---6--6-9--6-7----10--12--14--7--3--2-------------|
A|----9--9-12--9-10/6---6--6-9--6-7----10--12--14--7--3--2-------------|
D|----9--9-12--9-10/6---6--6-9--6-7----10--12--14--7--3--2-------------|


Bridge:

play x4
e|---------------------------------------------------------------------------|
B|---------------------------------------------------------------------------|
G|--------------------4----6-x--4--------------------------------------------|
D|------------4----6----4----------6-----------------------------------------|
A|-4-7-4---6----6------------------------------------------------------------|
D|---------------------------------------------------------------------------|

e|-----------------------------------------------------------------------------|
B|-----------------------------------------------------------------------------|
G|--6--8--9---11---------------------------------------------------------------|
D|--6--8--9---11---------------------------------------------------------------|
A|--4--6--7---9(x4)------------------------------------------------------------|
D|-----------------------------------------------------------------------------|


e|-------------------------------------------------------------------|
B|-------------------------------------------------------------------|
G|-------------------------------------------------------------------|
D|----9--9-12--9-10---6--6-9--6-7---4--4-7--4--6---13-13--12---10-9--|
A|----9--9-12--9-10---6--6-9--6-7---4--4-7--4--6---13-13--12---10-9--|
D|----9--9-12--9-10---6--6-9--6-7---4--4-7--4--6---13-13--12---10-9--|


ending:

play x2
e|-------------------------------------------------------------------------------|
B|-------------------------------------------------------------------------------|
G|-------------------------------------------------------------------------------|
D|----9--9-12--9-10/6---6--6-9--6-7----10--12--14--7---3---6--7-9--6-7-----------|
A|----9--9-12--9-10/6---6--6-9--6-7----10--12--14--7---3---6--7-9--6-7-----------|
D|----9--9-12--9-10/6---6--6-9--6-7----10--12--14--7---3---6--7-9--6-7-----------|
Comments