Marmalade - Wait For Me May-anne Chords & Tabs

 

Wait For Me May-anne Chords & Tabs

Marmalade Chords & Tabs

Version: 1 Type: Tab 0 ratings
1 star 2 stars 3 stars 4 stars 5 stars
comments

Wait For Me May-anne Tab

   
------------------------------------------------------------------

    THE MARMALADE - WAIT FOR ME MARY-ANNE (Macaulay) Released as a
                    single in 1968 with MESS AROUND as the B side.

------------------------------------------------------------------

    Tabbed by:PJVillanueva





       Intro
                                     
There's a small town lying by the river
Have way to nowhere
Where the trains just stop to take on water
But my girl, she lives there.
She don't have jewels, she ain't got money
But she makes my whole world sunny
Where's no make up on her face
But where she is, well, that's my place
And I'm going home to my girl.

       Chorus
Wait for me Mary-Anne
Please, stay free Mary-Anne
I'm coming home, girl, just as soon as I can
(My my my Mary-Anne)
Wait for me Mary-Anne
You will see Mary-Anne
That I was born to be your true lovin' man
(My my my Mary-Anne)

       Instrumental

In the city life gets often lonely
For a bore making gird
And it's hard to keep your sense of values
And to do things you should

Girls come easy, try to make you
Just as soon they'll try to break you
When the city dulls my eyes
Then I'll remember summer skies
And dream of the grace I belong

       Chorus x 2 (Fade in the 2nd)




                                  xx              x x x x x x x
  
e|------- ------- ------- -------|------- ------- ------- -------|
B|-------------------------------|-------------------------------|
G|-------------------------------|-------------------------------|
D|-------------------------------|-------------------------------|
A|-------------------------------|-------------------------------|
E|-------------------------------|-------------------------------|
                                          Hey!


  E               A               B
e|4------ 4-----4 5------ 5------|7------ 7---7-- 7------ 7---7--|
B|5-------5-----5-5-------5------|7-------7---7---7-------7---7--|
G|4-------4-----4-6-------6------|8-------8---8---8-------8---8--|
D|6-------6-----6-7-------7------|9-------9---9---9-------9---9--|
A|-------------------------------|-------------------------------|
E|-------------------------------|-------------------------------|

e12------12------12--12--12------14------14--14--14------14------|
B12------12------14--14--14------14------16--16--16H7----16------|
G13------13------14--14--14------14------16--16--16------16------|
D|-------------------------------|-------------------------------|
A|-------------------------------|-------------------------------|
E|-------------------------------|-------------------------------|

e|------- 12-14-- ---12-- -------|------- ------- ------- -------|
B|---12---12--------------14-12--|-------------------------------|
G13--13------14------14---14-11--|-------------------------------|
D14-----------------------14-13--|-------------------------------|
A|-------------------------------|-------------------------------|
E|-------------------------------|-------------------------------|



  E               A               B
e|4------ 4-----4 5------ 5------|7-----7 7------ 7------ 7------|
B|5-------5-----5-5-------5------|7-----7-7-------7-------7------|
G|4-------4-----4-6-------6------|8-----8-8-------8-------8------|
D|6-------6-----6-7-------7------|9-----9-9-------9-------9------|
A|-------------------------------|-------------------------------|
E|-------------------------------|-------------------------------|

e12------12------12------12------14------ -------14------ -------|
B12------12------14------14------16----1716--17--161716--16------|
G13------13------14------14------16----1616--16--161616--16------|
D|-------------------------------|-------------------------------|
A|-------------------------------|-------------------------------|
E|-------------------------------|-------------------------------|

e|------- 12-14-- ---12-- -------|------- ------- ------- -------|
B|---12---12--------------14-12--|-------------------------------|
G13--13------14------14---14-11--|---------------------------14--|
D14-----------------------14-13--|---------------------------14--|
A|-------------------------------|-------------------------------|
E|-------------------------------|-------------------------------|



  E                               F#
e|4------ 4-----4 4------ 4------|6------ 6-----6 6------ 6------|
B|5-------5-----5-5-------5------|7-------7-----7-7-------7------|
G|4-------4-----4-4-------4------|6-------6-----6-6-------6------|
D|6-------6-----6-6-------6------|8-------8-----8-8-------8------|
A|-------------------------------|-------------------------------|
E|-------------------------------|-------------------------------|

e12------12----1212--14--12------14------14----1414--12--14------|
B12------12----1212--12--12------14------14----1414--12--14------|
G13------13----1313--14--13------15------15----1515--13--15------|
D|-------------------------------|-------------------------------|
A|-------------------------------|-------------------------------|
E|-------------------------------|-------------------------------|

e|------- ---12-- ------- -------|------- ---14-- ------- ---1214|
B|---12------12------------------|---14------14--------------14--|
G13--13----------------------13--15--15--------------------------|
D14--------------------------14--16------------------------------|
A|-------------------------------|-------------------------------|
E|-------------------------------|-------------------------------|



  B                               A           E           B
e|7------ 7-----7 7------ 7------|5------ ----4-- ------- 2------|
B|7-------7-----7-7-------7------|5-----------5-----------4------|
G|8-------8-----8-8-------8------|6-----------4-----------4------|
D|9-------9-----9-9-------9------|7-----------6-----------4------|
A|-------------------------------|-------------------------------|
E|-------------------------------|-------------------------------|

e11-----11-----1111--12--11------|9------ ----7-- ------- 7------|
B12-----12-----1212--12--12------10-----------9-----------7------|
G11-----11-----1111--11--11------|9-----------9-----------8------|
D|-------------------------------|-------------------------------|
A|-------------------------------|-------------------------------|
E|-------------------------------|-------------------------------|

e11------ ------- ------- -------|------- ------- ------- -------|
B12------------------------------|-------------------------------|
G|-------------------------------|-------------------------------|
D|-------------------------------|-------------------------------|
A|-------------------------------|-------------------------------|
E|-------------------------------|-------------------------------|


                                  x x  x  x  x x    x x   x   x
  E
e|0------ ------- ------- -------|4-4---4 4---4-4 --4-4-- 4---4--|
B|0------------------------------|5-5---5-5---5-5---5-5---5---5--|
G|1------------------------------|4-4---4-4---4-4---4-4---4---4--|
D|2------------------------------|6-6---6-6---6-6---6-6---6---6--|
A|-------------------------------|-------------------------------|
E|-------------------------------|-------------------------------|
                                                          There's a
e|7------ ------- ------- -------|7------ ---7--- ------- 7------|
B|9------------------------------|9----------9------------9------|
G|9------------------------------|9----------9------------9------|
D|-------------------------------|-------------------------------|
A|-------------------------------|7-7---7-7----------------------|
E|0-----------0---0--------------|-----------7-7----7-7---0---0--|



  E               B               Dbm
e|------- 4------ ------- 2------|------- 4------ ------- 4------|
B|--------5---------------4------|--------5---------------5------|
G|--------4---------------4------|--------6---------------6------|
D|--------6---------------4------|--------6---------------6------|
A|-------------------------------|-------------------------------|
E|-------------------------------|-------------------------------|
  small   town    lying    by the river                   Have
e|------- ------- ------- -------|------- ------- ------- -------|
B|9-------9-------7-------7------|9-------9-----9---9-----9------|
G|9-------9-------8-------8------|9-------9-----9---9-----9------|
D|9-------9-------9-------9------11------11-----9---9-----9------|
A|-------------------------------|-------------------------------|
E|-------------------------------|-------------------------------|
                                                E


  A                               B
e|------- 5------ ------- 5------|------- 7------ ------- 7------|
B|--------5---------------5------|--------7---------------7------|
G|--------6---------------6------|--------8---------------8------|
D|--------7---------------7------|--------9---------------9------|
A|-------------------------------|-------------------------------|
E|-------------------------------|-------------------------------|
  way                 to      nowhere                     where the
e|------- ------- ------- -------|------- ------- ------- -------|
B|5-------5----5----7-----5------|7-------9----7------9---7------|
G|6-------6----6----6-----6------|8-------9----8------9---8------|
D|7-------7----7----7-----7------|9-------9----9------9---9------|
A|-------------------------------|-------------------------------|
E|-------------------------------|-------------------------------|
                                  B       E    B      E   B        


  E                       Ab              Dbm             B
e|------- 7------ ------- 8------|------- 9------ ------- 7------|
B|--------9---------------9------|--------9---------------7------|
G|--------9---------------8------|--------9---------------8------|
D|--------9--------------10------|-------11---------------9------|
A|-------------------------------|-------------------------------|
E|-------------------------------|-------------------------------|
  trains     just stop to take on water                   But my
e|------- ------- --4---- -------|9---9-- 9-----7 --7---- 7------|
B|9-------9-----7---------7------|9---9---9-----7---7-----7---7--|
G|9-------9-----5---------5------|9---9---9-----8---8-----8---8--|
D|9-------9-------6---6-------6--|-------------------------------|
A|-------------------------------|-------------------------------|
E|-------------------------------|-------------------------------|
            


  A                               B
e|------- 5------ ------- 5------|------- 7------ ------- 7------|
B|--------5---------------5------|--------7---------------7------|
G|--------6---------------6------|--------8---------------8------|
D|--------7---------------7------|--------9---------------9------|
A|-------------------------------|-------------------------------|
E|-------------------------------|-------------------------------|
  girl                she   lives there                       She
e|9------ 9-----9 ------- 9------11------11------ ---1114 ---11--|
B10------10----10--12----10------12------12----------12--14--12--|
G|9-------9-----9---9-----9------11------11----------11--11--11--|
D|-------------------------------|-------------------------------|
A|-------------------------------|-------------------------------|
E|-------------------------------|-------------------------------|
  


  E                               E+5
e|4------ 4-----4 4------ 4------|4------ 4-----4 4------ 4------|
B|5-------5-----5-5-------5------|5-------5-----5-5-------5------|
G|4-------4-----4-4-------4------|5-------5-----5-5-------5------|
D|6-------6-----6-6-------6------|6-------6-----6-6-------6------|
A|-------------------------------|-------------------------------|
E|-------------------------------|-------------------------------|
  don't      have jewels,     she ain't       got money
e|------- ------- -------12------|------- -----12 --12---12------|
B12------12------12------12------13------13----13---13---13------|
G13------13------13------13------13------13----13---13---13------|
D14------14------14--------------14------14----------------------|
A|-------------------------------|-------------------------------|
E|-------------------------------|-------------------------------|



  A                               B
e|5------ 5-----5 5-5---- 5------|7------ 7------ 7------ 7------|
B|5-------5-----5-5-5-----5------|7-------7-------7-------7------|
G|6-------6-----6-6-6-----6------|8-------8-------8-------8------|
D|7-------7-----7-7-7-----7------|9-------9-------9-------9------|
A|-------------------------------|-------------------------------|
E|-------------------------------|-------------------------------|
  But     she     makes   my      whole   world   sunny
e12------12----12 --12-1212--12--14--14--14----14 -14--14 ---14--|
B14------14----14---14-1414--14--16--16--16--16--16--16--16------|
G14------14----14---14-1414--14--16--16--16--16--16--16--16------|
D|-------------------------------|-------------------------------|
A|-------------------------------|-------------------------------|
E|-------------------------------|-------------------------------|



  E                               E+5
e|4------ 4-----4 4------ 4------|4------ 4-----4 4-4---- 4------|
B|5-------5-----5-5-------5------|5-------5-----5-5-5-----5------|
G|4-------4-----4-4-------4------|5-------5-----5-5-5-----5------|
D|6-------6-----6-6-------6------|6-------6-----6-6-6-----6------|
A|-------------------------------|-------------------------------|
E|-------------------------------|-------------------------------|
  Where's     no  make up         on  her     face            but
e|------- ------- -------12------|-------13----12 --12---12------|
B12------12----1212------12------13------13----13---13---13------|
G13------13----1313------13------13------13----13---13---13------|
D14------14----1414--------------14------------------------------|
A|-------------------------------|-------------------------------|
E|-------------------------------|-------------------------------|



  A                               B
e|5------ 5-----5 5-5---- 5------|7------ 7------ 7-----7 7------|
B|5-------5-----5-5-5-----5------|7-------7-------7-----7-7------|
G|6-------6-----6-6-6-----6------|8-------8-------8-----8-8------|
D|7-------7-----7-7-7-----7------|9-------9-------9-----9-9------|
A|-------------------------------|-------------------------------|
E|-------------------------------|-------------------------------|
  where   she     is,     well,   that's  my      place   and
e12------ -----12 ---12--12------14--14-- ---14-- 14----- ---14--|
B14------------14----12--14------16--16------16---16--17-16------|
G14------------14----14--14------16--16------16---16-----16------|
D|-------------------------------|-------------------------------|
A|-------------------------------|-------------------------------|
E|-------------------------------|-------------------------------|



  E                               F#
e|4------ 4------ 4------ 4------|6------ 6-----6 6------ 6------|
B|5-------5-------5-------5------|7-------7-----7-7-------7------|
G|4-------4-------4-------4------|6-------6-----6-6-------6------|
D|6-------6-------6-------6------|8-------8-----8-8-------8------|
A|-------------------------------|-------------------------------|
E|-------------------------------|-------------------------------|
  I'm                 going       home                to      my 
e|7------ 7------ 7----7- --7----|9------ 9-----9 9----9- --9----|
B|9-------9-------9----7----9----11------11----1111----9---11----|
G|9-------9-------9----9----9----11------11----1111---11---11----|
D|-------------------------------|-------------------------------|
A|-------------------------------|-------------------------------|
E|-------------------------------|-------------------------------|



  A                               B
e|5------ 5------ 5-5---- 5------|7------ 7-----7 7------ 7------|
B|5-------5-------5-5-----5------|7-------7-----7-7-------7------|
G|6-------6-------6-6-----6------|8-------8-----8-8-------8------|
D|7-------7-------7-7-----7------|9-------9-----9-9-------9------|
A|-------------------------------|-------------------------------|
E|-------------------------------|-------------------------------|
  girl.
e|------- ------- ------- -------|------- ------- ------- -------|
B10------10------10------10------12------12----1212---12---12----|
G|9-------9-------9-------9------11------11----1111---11---11----|
D11------11------11------11------13------13----1313---13---13----|
A|-------------------------------|-------------------------------|
E|-------------------------------|-------------------------------|




e|4------ 4------ 5------ 5------|7------ 7------ 7-7---- 7------|
B|5-------5-------5-------5------|7-------7-------7-7-----7------|
G|4-------4-------6-------6------|8-------8-------8-8-----8------|
D|6-------6-------7-------7------|9-------9-------9-9-----9------|
A|-------------------------------|-------------------------------|
E|-------------------------------|-------------------------------|  
  Wait    for     me         Mary-Anne
e12------12------ 12----- 12-----14------ -------14------ ---14--|
B12------12-------14------14-----16----1716--17--161716------16--|
G13------13-------14------14-----16------16--16--16----------16--|
D|-------------------------------|-------------------------------|
A|-------------------------------|-------------------------------|
E|-------------------------------|-------------------------------|




e|4------ 4------ 5------ 5------|7------ 7------ 7-7---7 7------|
B|5-------5-------5-------5------|7-------7-------7-7---7-7------|
G|4-------4-------6-------6------|8-------8-------8-8---8-8------|
D|6-------6-------7-------7------|9-------9-------9-9---9-9------|
A|-------------------------------|-------------------------------|
E|-------------------------------|-------------------------------|
  Please, stay    free       Mary-Anne                        I'm
e12------12------ ---12-- -------14------ -------14------ ---14--|
B12------12----------14----------16----1716--17--16----1716--16--|
G13------13----------14----------16----1616--16--16----1616--16--|
D|-------------------------------|-------------------------------|
A|-------------------------------|-------------------------------|
E|-------------------------------|-------------------------------|




e|4------ 4------ 4------ 4------|6------ 6-----6 6-6---- 6------|
B|5-------5-------5-------5------|7-------7-----7-7-7-----7------|
G|4-------4-------4-------4------|6-------6-----6-6-6-----6------|
D|6-------6-------6-------6------|8-------8-----8-8-8-----8------|
A|-------------------------------|-------------------------------|
E|-------------------------------|-------------------------------|
  coming      home,   girl,       just as     soon    as  I                  
e|------- ------- -------12------14--14-- ---14-- ---12--14------|
B12------12------12------12------14--14------14------12--14------|
G13------13------13------13------15--15------15------13--15------|
D14------14------14--------------|-------------------------------|
A|-------------------------------|-------------------------------|
E|-------------------------------|-------------------------------|




e|7------ 7-----7 7-7---- 7------|7------ 7------ 7------ 7------|
B|7-------7-----7-7-7-----7------|7-------7-------7-------7------|
G|8-------8-----8-8-8-----8------|8-------8-------8-------8------|
D|9-------9-----9-9-9-----9------|9-------9-------9-------9------|
A|-------------------------------|-------------------------------|
E|-------------------------------|-------------------------------|      
  can                                (My  my  my  Mary-Ann)        
e|------- -------14------ -------14------14------ -------14------|
B16------16----17171716----------16------16--------------16------|
G16------16----16--1616----------16------16--------------16--16--|
D|-------------------------------|-------------------------------|
A|-------------------------------|-------------------------------|
E|-------------------------------|-------------------------------|


                                     

e|4------ 4-----4 5------ 5------|7-----7 7------ 7-7---- 7------|
B|5-------5-----5-5-------5------|7-----7-7-------7-7-----7------|
G|4-------4-----4-6-------6------|8-----8-8-------8-8-----8------|
D|6-------6-----6-7-------7------|9-----9-9-------9-9-----9------|
A|-------------------------------|-------------------------------|
E|-------------------------------|-------------------------------|
  Wait    for     me         Mary-Anne
e12------12------ 12----- 12-----14------ ------- ------- -------|
B12------12-------14------14-----16----1716------1717--1716------|
G13------13-------14------14-----16----1616------1616--1616--16--|
D|-------------------------------|-------------------------------|
A|-------------------------------|-------------------------------|
E|-------------------------------|-------------------------------|




e|4------ 4------ 5------ 5------|7-7---- 7------ 7------ 7------|
B|5-------5-------5-------5------|7-7-----7-------7-------7------|
G|4-------4-------6-------6------|8-8-----8-------8-------8------|
D|6-------6-------7-------7------|9-9-----9-------9-------9------|
A|-------------------------------|-------------------------------|
E|-------------------------------|-------------------------------|
  You     will    see        Mary-Anne                        that   
e|------- ------- 12----- 12-----14--14-- -------1414---- -------|
B12------12--12---14------14-----16--16------17--1616--1716------|
G13------13--13---14------14-----16--16------16--1616--1616--16--|
D14------14--14------------------|-------------------------------|
A|-------------------------------|-------------------------------|
E|-------------------------------|-------------------------------|




e|4------ 4------ 4------ 4------|6------ 6------ 6-6---- 6------|
B|5-------5-------5-------5------|7-------7-------7-7-----7------|
G|4-------4-------4-------4------|6-------6-------6-6-----6------|
D|6-------6-------6-------6------|8-------8-------8-8-----8------|
A|-------------------------------|-------------------------------|
E|-------------------------------|-------------------------------|
  I   was     born            to  be  your    true    lovin'        
e|------- ------- ---12--12------14------ 14----- ---12--14------|
B12------12--12------12--12------14-------14---------12--14------|
G13------13--13------13--13------15-------15---------13--15------|
D14------14--14------------------|-------------------------------|
A|-------------------------------|-------------------------------|
E|-------------------------------|-------------------------------|
  



e|7------ 7-----7 7------ 7-----7|7-7---- 7------ 7------ 7------|
B|7-------7-----7-7-------7-----7|7-7-----7-------7-------7------|
G|8-------8-----8-8-------8-----8|8-8-----8-------8-------8------|
D|9-------9-----9-9-------9-----9|9-9-----9-------9-------9------|
A|-------------------------------|-------------------------------|
E|-------------------------------|-------------------------------|  
  man                                (My  my  my  Mary-Ann)       
e14------14------14------ -------14------14--14--14--------------|
B16------16------16----1616--14--16------16--16--16----1716------|
G16------16------16----1616------16------16--16--16----1616--16--|
D|-------------------------------|-------------------------------|
A|-------------------------------|-------------------------------|
E|-------------------------------|-------------------------------|  



  E               A               B
e|4------ 4-----4 5------ 5------|7------ 7---7-- 7------ 7---7--|
B|5-------5-----5-5-------5------|7-------7---7---7-------7---7--|
G|4-------4-----4-6-------6------|8-------8---8---8-------8---8--|
D|6-------6-----6-7-------7------|9-------9---9---9-------9---9--|
A|-------------------------------|-------------------------------|
E|-------------------------------|-------------------------------|

e12------12------12------12------14------14--14--14------14------|
B12------12------14------14------14------16--16--16H7----16------|
G13------13------14------14------14------16--16--16------16--16--|
D|-------------------------------|-------------------------------|
A|-------------------------------|-------------------------------|
E|-------------------------------|-------------------------------|

e|------- 12-14-- ---12-- -------|------- ------- ------- -------|
B|---12---12--------------14-12--|-------------------------------|
G13--13------14------14---14-11--|-------------------------------|
D14-----------------------14-13--|-------------------------------|
A|-------------------------------|-------------------------------|
E|-------------------------------|-------------------------------|



  E               A               B
e|4------ 4-----4 5------ 5------|7-----7 7------ 7------ 7------|
B|5-------5-----5-5-------5------|7-----7-7-------7-------7------|
G|4-------4-----4-6-------6------|8-----8-8-------8-------8------|
D|6-------6-----6-7-------7------|9-----9-9-------9-------9------|
A|-------------------------------|-------------------------------|
E|-------------------------------|-------------------------------|
[ Tab from: http://www.guitartabs.cc/tabs/m/marmalade/wait_for_me_may_anne_tab.html ]
e12------12------12------12------14------ ---14---------- -------|
B12------12------14------14------16----17161716------17--16------|
G13------13------14------14------16----16161616------16--16--16--|
D|-------------------------------|-------------------------------|
A|-------------------------------|-------------------------------|
E|-------------------------------|-------------------------------|

e|------- 12-14-- ---12-- -------|------- ------- ------- -------|
B|---12---12--------------14-12--|-------------------------------|
G13--13------14------14---14-11--|---------------------------14--|
D14-----------------------14-13--|---------------------------14--|
A|-------------------------------|-------------------------------|
E|-------------------------------|-------------------------------|



  E                               F#
e|4------ 4-----4 4------ 4------|6------ 6-----6 6------ 6------|
B|5-------5-----5-5-------5------|7-------7-----7-7-------7------|
G|4-------4-----4-4-------4------|6-------6-----6-6-------6------|
D|6-------6-----6-6-------6------|8-------8-----8-8-------8------|
A|-------------------------------|-------------------------------|
E|-------------------------------|-------------------------------|

e12------12----1212--14--12------14------14----1414--12--14------|
B12------12----1212--12--12------14------14----1414--12--14------|
G13------13----1313--14--13------15------15----1515--13--15------|
D|-------------------------------|-------------------------------|
A|-------------------------------|-------------------------------|
E|-------------------------------|-------------------------------|

e|------- ---12-- ------- -------|------- ---14-- ------- ---1214|
B|---12------12------------------|---14------14--------------14--|
G13--13----------------------13--15--15--------------------------|
D14--------------------------14--16------------------------------|
A|-------------------------------|-------------------------------|
E|-------------------------------|-------------------------------|



  B                               A           E           B
e|7------ 7-----7 7------ 7------|5------ ----4-- ------- 2------|
B|7-------7-----7-7-------7------|5-----------5-----------4------|
G|8-------8-----8-8-------8------|6-----------4-----------4------|
D|9-------9-----9-9-------9------|7-----------6-----------4------|
A|-------------------------------|-------------------------------|
E|-------------------------------|-------------------------------|

e11-----11-----1111--12--11------|9------ ----7-- ------- 7------|
B12-----12-----1212--12--12------10-----------9-----------7------|
G11-----11-----1111--11--11------|9-----------9-----------8------|
D|-------------------------------|-------------------------------|
A|-------------------------------|-------------------------------|
E|-------------------------------|-------------------------------|

e11------ ------- ------- -------|------- ------- ------- -------|
B12------------------------------|-------------------------------|
G|-------------------------------|-------------------------------|
D|-------------------------------|-------------------------------|
A|-------------------------------|-------------------------------|
E|-------------------------------|-------------------------------|


                                  x x  x  x  x x    x x   x   x           
  E                               C                                        
e|0------ ------- ------- -------|8-8---8 8---8-8 --8-8-- 8---8--|
B|0------------------------------|8-8---8-8---8-8---8-8---8---8--|
G|1------------------------------|9-9---9-9---9-9---9-9---9---9--|
D|2------------------------------1010--1010--1010--1010--10--10--|
A|-------------------------------|-------------------------------|
E|-------------------------------|-------------------------------|
                                                          In  the
e|7------ ------- ------- -------|------- ------- ------- -------|
B|9------------------------------|8-----------8-----------8------|
G|9------------------------------|9-----------9-----------9------|
D|-------------------------------10----------10----------10------|
A|-------------------------------|-------------------------------|
E|0-----------0---0--------------|8-8---8-8---8-8---8-8---8---8--|


                                                           
  F               A               Dm              Dm7
e|------- 8------ ------- 5------|------- 5------ -------5-------|
B|-------10---------------5------|--------6--------------6-------|
G|-------10---------------6------|--------7--------------5-------|
D|-------10---------------7------|--------7--------------7-------|
A|-------------------------------|-------------------------------|
E|-------------------------------|-------------------------------|
  city        life   gets often   lonely                      for a
e|8------ 8-----8 --9---- 9---9--10--10--10----10 8------ 8------|
B10------10----10--10----10--10--10--10--10----10-8-------8------|
G10------10----10---9-----9---9--10--10--10----10-9-------9------|
D|-------------------------------|-------------------------------|
A|-------------------------------|-------------------------------|
E|-------------------------------|-------------------------------|



  Bb                              C
e|------- 6------ ------- 6------|------- 8------ ------- 8------|
B|--------6---------------6------|--------8---------------8------|
G|--------7---------------7------|--------9---------------9------|
D|--------8---------------8------|-------10--------------10------|
A|-------------------------------|-------------------------------|
E|-------------------------------|-------------------------------|
  bore                making      gird                    And it's
e|6---6-- 6-----6 6-6-6-- 6-----6|8---8-- 8-----8 --8-8-- 8---8--|
B|6---6---6-----6-6-6-6---6-----6|8---8---8-----8---810---8---8--|
G|7---7---7-----7-7-7-7---7-----7|9---9---9-----9---910---9---9--|
D|-------------------------------|-------------------------------|
A|-------------------------------|-------------------------------|
E|-------------------------------|-------------------------------|



  F               A               Dm              Dm7
e|------- 8------ ------- 5------|------- 5------ -------5-------|
B|-------10---------------5------|--------6--------------6-------|
G|-------10---------------6------|--------7--------------5-------|
D|-------10---------------7------|--------7--------------7-------|
A|-------------------------------|-------------------------------|
E|-------------------------------|-------------------------------|
  hard       to keep your sense of values                 and to
e|8------ 8---8-8 --9-9-- 9---9--10--10--10------ 8------ -------|
B10------10--1010--1010--10--10--10--10--10------10-----810------|
G10------10--1010---9-9---9---9--10--10--10------10--10------10--|
D|-------------------------------|-------------------------------|
A|-------------------------------|-------------------------------|
E|-------------------------------|-------------------------------|



  Bb                              C
e|------- 6------ ------- 6------|------- 8------ ------- 8------|
B|--------6---------------6------|--------8---------------8------|
G|--------7---------------7------|--------9---------------9------|
D|--------8---------------8------|-------10--------------10------|
A|-------------------------------|-------------------------------|
E|-------------------------------|-------------------------------|
  do                  things  you   should
e10--10-- 10---10 ------- 10-----12--12--12----12 ---12--12------|
B11--11---11---11----1113-11-11--12--12--12----12----12--12------|
G10--10---10---10----10---10-10--13--13--13----13----13--13------|
D|-------------------------------|-------------------------------|
A|-------------------------------|-------------------------------|
E|-------------------------------|-------------------------------|



  F                               F+5
e|5------ 5-----5 5------ 5------|5------ 5------ 5------ 5---5--|
B|6-------6-----6-6-------6------|6-------6-------6-------6---6--|
G|5-------5-----5-5-------5------|6-------6-------6-------6---6--|
D|7-------7-----7-7-------7------|7-------7-------7-------7---7--|
A|-------------------------------|-------------------------------|
E|-------------------------------|-------------------------------|
  Girls      come easy,           try          to make you
e|8------ 8-----8 8------ 8------|9---9-- 9------ 9------ 9------|
B10------10----1010------10------10--10--10------10------10------|
G10------10----1010------10------10--10--10------10------10------|
D10------10----1010------10------11--11--11------11------11------|
A|-------------------------------|-------------------------------|
E|-------------------------------|-------------------------------|



  Bb                              C
e|6------ 6-----6 6------ 6------|8------ 8------ 8------ 8------|
B|6-------6-----6-6-------6------|8-------8-------8-------8------|
G|7-------7-----7-7-------7------|9-------9-------9-------9------|
D|8-------8-----8-8-------8------10------10------10------10------|
A|-------------------------------|-------------------------------|
E|-------------------------------|-------------------------------|
  Just    as      soon    they'll try     to      break you
e10------10----1010------10------12----1212--12--12------12------|
B11------11----1111------11------13----1313--13--13------13------|
G10------10----1010------10------12----1212--12--12------12------|
D|-------------------------------|-------------------------------|
A|-------------------------------|-------------------------------|
E|-------------------------------|-------------------------------|



  F                               F+5
e|5------ 5------ 5------ 5------|5---5-- 5-5---5 5---5-- 5------|
B|6-------6-------6-------6------|6---6---6-6---6-6---6---6------|
G|5-------5-------5-------5------|6---6---6-6---6-6---6---6------|
D|7-------7-------7-------7------|7---7---7-7---7-7---7---7------|
A|-------------------------------|-------------------------------|
E|-------------------------------|-------------------------------|
  When        the city            dulls        my eyes        then
e|8---8-- 8------ 8------ 8------|9---9-- 9-----9 9---9-- 9------|
B10--10--10------10------10------10--10--10----1010--10--10------|
G10--10--10------10------10------10--10--10----1010--10--10------|
D10--10--10------10------10------11--11--11----1111--11--11------|
A|-------------------------------|-------------------------------|
E|-------------------------------|-------------------------------|



  Bb                              C
e|6------ 6-----6 6------ 6------|8------ 8------ 8------ -------|
B|6-------6-----6-6-------6------|8-------8-------8--------------|
G|7-------7-----7-7-------7------|9-------9-------9--------------|
D|8-------8-----8-8-------8------10------10------10--------------|
A|-------------------------------|-------------------------------|
E|-------------------------------|-------------------------------|
  I'll    remember                summer skies            and
e10------10----10--1010--10------12--12--12----1212------12------|
B11------11----11--1111--11------13--13--13----1313------13------|
G10------10----10--1010--10------12--12--12----1212------12------|
D|-------------------------------|-------------------------------|
A|-------------------------------|-------------------------------|
E|-------------------------------|-------------------------------|



  F                               G
e|5------ 5-----5 5------ 5------|7------ 7-----7 7------ 7------|
B|6-------6-----6-6-------6------|8-------8-----8-8-------8------|
G|5-------5-----5-5-------5------|7-------7-----7-7-------7------|
D|7-------7-----7-7-------7------|9-------9-----9-9-------9------|
A|-------------------------------|-------------------------------|
E|-------------------------------|-------------------------------|
  dream               of      the grace               I       belong
e|8------ 8-----8 8---8-- 8------10------10----1010--10--10------|
B10------10----1010--10--10------12------12----1212--12--12------|
G10------10----1010--10--10------12------12----1212--12--12------|
D|-------------------------------|-------------------------------|
A|-------------------------------|-------------------------------|
E|-------------------------------|-------------------------------|



  Bb                              C
e|6------ 6-----6 6-6---- 6------|8-----8 8-----8 8------ 8------|
B|6-------6-----6-6-6-----6------|8-----8-8-----8-8-------8------|
G|7-------7-----7-7-7-----7------|9-----9-9-----9-9-------9------|
D|8-------8-----8-8-8-----8------10----1010----1010------10------|
A|-------------------------------|-------------------------------|
E|-------------------------------|-------------------------------|

e12--12--12------12------12------12------12----1212------12----12|
B13--13--13------13------13------13------13----1313------13----13|
G12--12--12------12------12------12------12----1212------12----12|
D|-------------------------------|-------------------------------|
A|-------------------------------|-------------------------------|
E|-------------------------------|-------------------------------|

                                                        

  F               Bb              C
e|5------ 5-----5 6------ 6------|8------ 8------ 8------ 8------|
B|6-------6-----6-6-------6------|8-------8-------8-------8------|
G|5-------5-----5-7-------7------|9-------9-------9-------9------|
D|7-------7-----7-8-------8------10------10------10------10------|
A|-------------------------------|-------------------------------|
E|-------------------------------|-------------------------------|
  Wait    for     me         Mary-Anne
e|8------ 8----10 1010--- 10-----12------12------12------12--12--|
B10------10----11-1111----11-----13------13------13------13--13--|
G10------10----10-1010----10-----12------12------12------12--12--|
D|-------------------------------|-------------------------------|
A|-------------------------------|-------------------------------|
E|-------------------------------|-------------------------------|



  F               Bb              C
e|5------ 5-----5 6------ 6------|8------ 8-----8 8------ 8------|
B|6-------6-----6-6-------6------|8-------8-----8-8-------8------|
G|5-------5-----5-7-------7------|9-------9-----9-9-------9------|
D|7-------7-----7-8-------8------10------10----1010------10------|
A|-------------------------------|-------------------------------|
E|-------------------------------|-------------------------------|
  Please, stay    free       Mary-Anne                        I'm
e|8------ 8----10 1010-1010--10--12--12-- ---12--12--12--12--12--|
B10------10----11-1111-1111--11--13--13------13--13--13--13--13--|
G10------10----10-1010-1010--10--12--12------12--12--12--12--12--|
D|-------------------------------|-------------------------------|
A|-------------------------------|-------------------------------|
E|-------------------------------|-------------------------------|



  F                               G
e|5------ 5------ 5------ 5------|7------ 7------ 7------ 7------|
B|6-------6-------6-------6------|8-------8-------8-------8------|
G|5-------5-------5-------5------|7-------7-------7-------7------|
D|7-------7-------7-------7------|9-------9-------9-------9------|
A|-------------------------------|-------------------------------|
E|-------------------------------|-------------------------------|
  coming      home,   girl,       just as     soon    as  I 
e|8------ 8------ 8---8-- 8------10--10--10--10--10------ ---10--|
B10------10------10--10--10------12--12--12--12--12----------12--|
G10------10------10--10--19------12--12--12--12--12----------12--|
D|-------------------------------|-------------------------------|
A|-------------------------------|-------------------------------|
E|-------------------------------|-------------------------------|



  C
e|8------ 8------ 8------ 8------|8------ 8------ 8------ 8------|
B|8-------8-------8-------8------|8-------8-------8-------8------|
G|9-------9-------9-------9------|9-------9-------9-------9------|
D10------10------10------10------10------10------10------10------|
A|-------------------------------|-------------------------------|
E|-------------------------------|-------------------------------|
  can                                (My  my  my  Mary-Ann) 
e12--12--12------12------12------10------10--10--10------10------|
B13--13--13------13------13------11------11--11--11------11------|
G12--12--12------12------12------10------10--10--10------10------|
D|-------------------------------|-------------------------------|
A|-------------------------------|-------------------------------|
E|-------------------------------|-------------------------------|



  F               Bb              C
e|5------ 5-----5 6------ 6------|8------ 8-----8 8------ 8------|
B|6-------6-----6-6-------6------|8-------8-----8-8-------8------|
G|5-------5-----5-7-------7------|9-------9-----9-9-------9------|
D|7-------7-----7-8-------8------10------10----1010------10------|
A|-------------------------------|-------------------------------|
E|-------------------------------|-------------------------------|
  Wait    for     me         Mary-Anne
e|8------ 8----10 1010-10 10-10--12--12--12--12--12------12------|
B10------10----11-1111-11-11-11--13--13--13--13--13------13------|
G10------10----10-1010-10-10-10--12--12--12--12--12------12------|
D|-------------------------------|-------------------------------|
A|-------------------------------|-------------------------------|
E|-------------------------------|-------------------------------|



  F               Bb              C
e|5------ 5-----5 6------ 6------|8------ 8-----8 8------ 8------|
B|6-------6-----6-6-------6------|8-------8-----8-8-------8------|
G|5-------5-----5-7-------7------|9-------9-----9-9-------9------|
D|7-------7-----7-8-------8------10------10----1010------10------|
A|-------------------------------|-------------------------------|
E|-------------------------------|-------------------------------|
  You     will    see        Mary-Anne                        that
e|8------ 8----10 1010-10 10-10--12--12--12--12--12------12--12--|
B10------10----11-1111-11-11-11--13--13--13--13--13------13--13--|
G10------10----10-1010-10-10-10--12--12--12--12--12------12--12--|
D|-------------------------------|-------------------------------|
A|-------------------------------|-------------------------------|
E|-------------------------------|-------------------------------|



  F                               G
e|5------ 5-5---5 5---5-- 5---5--|7------ 7-----7 7------ 7---7--|
B|6-------6-6---6-6---6---6---6--|8-------8-----8-8-------8---8--|
G|5-------5-5---5-5---5---5---5--|7-------7-----7-7-------7---7--|
D|7-------7-7---7-7---7---7---7--|9-------9-----9-9-------9---9--|
A|-------------------------------|-------------------------------|
E|-------------------------------|-------------------------------|
  I   was     born            to  be  your    true    lovin'
e|8------ 8-8---- 8---8-- 8---8--10------10------10------10--10--|
B10------1010----10--10--10--10--12------12------12------12--12--|
G10------1010----10--10--10--10--12------12------12------12--12--|
D|-------------------------------|-------------------------------|
A|-------------------------------|-------------------------------|
E|-------------------------------|-------------------------------|



  C
e|8------ 8-----8 8-8---- 8---8--|8------ 8------ 8------ 8------|
B|8-------8-----8-8-8-----8---8--|8-------8-------8-------8------|
G|9-------9-----9-9-9-----9---9--|9-------9-------9-------9------|
D10------10----101010----10--10--10------10------10------10------|
A|-------------------------------|-------------------------------|
E|-------------------------------|-------------------------------|
  man                                (My  my  my  Mary-Ann)
e12--12--12------12------12------12------12------ ---10--10--10--|
B13--13--13------13------13------13------13----------11--11--11--|
G12--12--12------12------12------12------12----------10--10--10--|
D|-------------------------------|-------------------------------|
A|-------------------------------|-------------------------------|
E|-------------------------------|-------------------------------|  



  F               Bb              C
e|5------ 5------ 6------ 6------|8------ 8------ 8------ 8------|
B|6-------6-------6-------6------|8-------8-------8-------8------|
G|5-------5-------7-------7------|9-------9-------9-------9------|
D|7-------7-------8-------8------10------10------10------10------|
A|-------------------------------|-------------------------------|
E|-------------------------------|-------------------------------|
  Wait    for     me         Mary-Anne
                                     (My  my  my  Mary-Ann) 
e|8------ 8----10 1010-10 10-10--12------12--12--10------10------|
B10------10----11-1111-11-11-11--13------13--13--11------11------|
G10------10----10-1010-10-10-10--12------12--12--10------10------|
D|-------------------------------|-------------------------------|
A|-------------------------------|-------------------------------|
E|-------------------------------|-------------------------------|



  F               Bb              C
e|5------ 5-----5 6------ 6------|8------ 8-----8 8------ 8------|
B|6-------6-----6-6-------6------|8-------8-----8-8-------8------|
G|5-------5-----5-7-------7------|9-------9-----9-9-------9------|
D|7-------7-----7-8-------8------10------10----1010------10------|
A|-------------------------------|-------------------------------|
E|-------------------------------|-------------------------------|
  Please, stay    free       Mary-Anne                        I'm
                                     (My  my  my  Mary-Ann)
e|8------ 8----10 1010-1010--10--12------12----1010------10------|
B10------10----11-1111-1111--11--13------13----1111------11------|
G10------10----10-1010-1010--10--12------12----1010------10------|
D|-------------------------------|-------------------------------|
A|-------------------------------|-------------------------------|
E|-------------------------------|-------------------------------|
  .............................Fade..............................


  F                               G
e|5------ 5------ 5---5-- 5---5--|7------ 7------ 7------ 7---7--|
B|6-------6-------6---6---6---6--|8-------8-------8-------8---8--|
G|5-------5-------5---5---5---5--|7-------7-------7-------7---7--|
D|7-------7-------7---7---7---7--|9-------9-------9-------9---9--|
A|-------------------------------|-------------------------------|
E|-------------------------------|-------------------------------|
  coming      home,   girl,       just as     soon    as  I 
e|8------ 8-8---8 --8---8 8---8--10------10------10------10--10--|
B10------1010--10--10--1010--10--12------12------12------12--12--|
G10------1010--10--10--1010--10--12------12------12------12--12--|
D|-------------------------------|-------------------------------|
A|-------------------------------|-------------------------------|
E|-------------------------------|-------------------------------|
  ...............................................................


  C
e|8------ 8------ 8------ 8------|8------ 8------ 8------ 8------|
B|8-------8-------8-------8------|8-------8-------8-------8------|
G|9-------9-------9-------9------|9-------9-------9-------9------|
D10------10------10------10------10------10------10------10------|
A|-------------------------------|-------------------------------|
E|-------------------------------|-------------------------------|
  can                                (My  my  my  Mary-Ann) 
e12--12--12------12------12------10------10--10--10------10------|
B13--13--13------13------13------11------11--11--11------11------|
G12--12--12------12------12------10------10--10--10------10------|
D|-------------------------------|-------------------------------|
A|-------------------------------|-------------------------------|
E|-------------------------------|-------------------------------|
  ...............................................................


  F               Bb              C
e|5------ 5-----5 6------ 6------|8------ 8-----8 8------ 8------|
B|6-------6-----6-6-------6------|8-------8-----8-8-------8------|
G|5-------5-----5-7-------7------|9-------9-----9-9-------9------|
D|7-------7-----7-8-------8------10------10----1010------10------|
A|-------------------------------|-------------------------------|
E|-------------------------------|-------------------------------|
  Wait    for     me         Mary-Anne
e|8------ 8----10 1010-10 10-10--12--12--12--12--12------12------|
B10------10----11-1111-11-11-11--13--13--13--13--13------13------|
G10------10----10-1010-10-10-10--12--12--12--12--12------12------|
D|-------------------------------|-------------------------------|
A|-------------------------------|-------------------------------|
E|-------------------------------|-------------------------------|
  ...............................................................








        B  Bend
        R  Release
        /  Slide up
        \  Slide down
        H  Hammer-on
        P  Pull-off
        ~  Vibrato
        +  Harmonic
        x  Mute note
        .  Play note like a dot in standard notation
        ^  Ties two notes together
        (. Pause
Comments