Marlin Lene - Unforgivable Sinner Chords & Tabs

 

Unforgivable Sinner Chords & Tabs

Marlin Lene Chords & Tabs

Version: 1 Type: Tab 0 ratings
1 star 2 stars 3 stars 4 stars 5 stars
comments

Unforgivable Sinner Tab

   

Artist:  Lene Marlin
Title:	  Unforgivable Sinner
Tabbed By:  Nicholas Woon


I'm not sure if this is absolutely correct.  But it is pretty accurate.

Chords Used

     Em     C     D     Am     G
E|----0------0-----2-----0------3-----|
B|----0------1-----3-----1------0-----| 
G|----0------0-----2-----2------0-----| 
D|----2------2-----0-----2------0-----| 
A|----2------3-----x-----0------2-----| 
E|----0------0-----x-----x------3-----| 


This part is the guitar solo which is played at various parts in the song.

/ = Slide

E|------------------------------------------------|
B|------------------------------------------------| 
G|------------------------------------------------| 
D|---4/5--4--5—-3/4-------------------4--5—-4/5---| 
A|-------------------6/7---------6/7--------------| 
E|------------------------------------------------|

E|------------------------------------------------|
B|------------------------------------------------| 
G|------------------------------------------------| 
D|------------0--2--0-----------------------------| 
A|---3--2--3-----------2--------------------------| 
E|------------------------3--4--5--3--0--3--2--0--|


The chords throughout the song are:

INTRO:  The solo is played along with these chords.
Em  |  C  |  D  |  C  |  Em  |  C  |  D  |  C  |
[ Tab from: http://www.guitartabs.cc/tabs/m/marlin_lene/unforgivable_sinner_tab.html ]
VERSE 1:
Em  |  C  |  D  |  G  |  Am  |  D  |  Em |  C  |
D   |  G  |  Am |  Am |

CHORUS:
Em  |  C  |  D  |  G  |  C   |  D  |G  D |  Em |
C   |  D  |  D  |  Em |  Em  |

VERSE 2:
Em  |  C  |  D  |  G  |  Em  |  C  |  D  |  G  |
Am  |  Am |

CHORUS:
Em  |  C  |  D  |  G  |  C   |  D  |G  D |  Em |
C   |  D  |  D  |

SOLO:  Chords along with solo are.
Em  |  C  |  D  |  C  |  Em  |  C  |  D  |  C  |

BRIDGE:
Am  |  Em |  D  |  C  |  Am  |  Em |  D  |  C  |
C   |  C  |  C  |

CHORUS:
Em  |  C  |  D  |  G  |  C   |  D  |G  D |  Em |
C   |  D  |  D  |

OUTRO:  Solo is played again with these chords.
Em  |  C  |  D  |  C  |  Em  |  C  |  D  |  C  |
Em  |


Comments