Marlene Kuntz - Overflash Chords & Tabs

 

Overflash Chords & Tabs

Marlene Kuntz Chords & Tabs

Version: 1 Type: Tab 0 ratings
1 star 2 stars 3 stars 4 stars 5 stars
comments

Overflash Tab

MARLENE KUNTZ - OVERFLASH

Gtr 1 - Cristiano Godano - heavy distortion + deep flanger

Gtr 2 - Riccardo Tesio - heavy distortion

Intro:

Only Gtr1 4 times:
e|-5-6-5-3--3-5-3-3/5-7-7-|
B|*----------------------*|
G|------------------------|
D|------------------------|
A|*----------------------*|
E|------------------------|

Then enters Gtr2:
e|-------------------|
B|*-----------------*|
G|---7--5--8--7--5---|
D|---7--5--8--7--5---|
A|*--5--3--6--5--3--*|
E|-------------------|


Verse: Only Gtr2, playing intro riff

Between verses is repeated Intro riff with also Gtr1

Chorus (both guitars playing the same):
e|--------------------|--------------------|
B|--------------------|--------------------|
G|---2-5-7----8-7-5---|-5-5-5-7-7-7-8-8-7--|
D|*--2-5-7----8-7-5---|-5-5-5-7-7-7-8-8-7-*|
A|*--0-3-5----6-5-3---|-3-3-3-5-5-5-6-6-5-*|
E|--------------------|--------------------|
[ Tab from: http://www.guitartabs.cc/tabs/m/marlene_kuntz/overflash_tab.html ]
Bridge: just noise for a while, then play:
e|------------------------|
B|*----------------------*|
G|--2-2-2---/7-7-7-7-5----|x 4
D|------------------------|
A|*-0-0-0---/5-5-5-5-3---*|
E|------------------------|

e|------------------------|
B|*----------------------*|
G|--2-2-2---/8-8-8-8-7----|x 4
D|------------------------|
A|*-0-0-0---/6-6-6-6-5---*|
E|------------------------|

Then turn off phaser for outro:
e|-------------------------|------------------------|------------------------|------------------------|
B|*------------------------|------------------------|------------------------|-----------------------*|
G|-------------------------|------------------------|------------------------|------------------------|
D|-------------------------|------------------------|------------------------|------------------------|
A|*------------------------|------------------------|------------------------|-----------------------*|
E|--5-5--5-5-5--5-5--5-5-5-|-3-3--3-3-3--3-3--3-3-3-|-1-1--1-1-1--1-1--1-1-1-|-0-0--0-0-0--0-0--0-0-0-|


for comments or corrections my mail is fleafly_@libero.it

Comments