Marlene Kuntz - L'agguato Chords & Tabs

 

L'agguato Chords & Tabs

Marlene Kuntz Chords & Tabs

Version: 1 Type: Bass Tab 0 ratings
1 star 2 stars 3 stars 4 stars 5 stars
comments

L'agguato Bass Tab

MARLENE KUNTZ - L'AGGUATO

BASS TAB

Accordatura 1/2 tono sotto

Parte lenta:
Gb|---------------------|
Db|*-------------------*|
Ab|*-------------------*|x 8
Eb|-0-0-0-0---0-0-2h3-3-|

Gb|--------------------------------|
Db|--------------------------------|
Ab|-3-3-3-3---2-2-2-2--------------|x 2
Eb|--------------------0-0-0-2h3-2-|
[ Tab from: http://www.guitartabs.cc/tabs/m/marlene_kuntz/lagguato_btab.html ]
Parte "violenta":
Gb|----------------------------|
Db|*--------------------------*|
Ab|*--------------0-2-2-2h4p2-*|
Eb|-2--0-0-2p0-0---------------|

"E il sole scaglia la sua gloria..."
Gb|---------------|
Db|*-------------*|
Ab|*-------------*|
Eb|-2--2--0--0-0--|

Outro
Gb|-------------------------|
Db|*-----------------------*|
Ab|*2--2--0--0-------------*|
Eb|--------------0--0--2--2-|


Per commenti o correzioni la mia mail รจ fleafly_@libero.it

Comments