Marlene Kuntz - La Lira Di Narciso Chords & Tabs

 

La Lira Di Narciso Chords & Tabs

Marlene Kuntz Chords & Tabs

Version: 1 Type: Tab 0 ratings
1 star 2 stars 3 stars 4 stars 5 stars
comments

La Lira Di Narciso Tab

   
MARLENE KUNTZ - LA LIRA DI NARCISO

Tuning both guitars in E B E E A B

Intro / main part:

Gtr 1-Cristiano Godano:
B|-----------------------------------------------------------|
A|*---------------------------------------------------------*|
E|-----------------------------------------------------------|
E|-----------------------------------------------------------|2 volte
B|*---------------------------------------------------------*|
E|-0-0-0-0-0-0-0-0-0-0-0-0-0-0-0-0-0-0-0-0-0/7-7-7-7-5-5-5-5-|
  |-----------------------------------------|
                 palm-muted

Gtr 2-Riccardo Tesio:
B|---------------------|
A|*----------------------*|
E|---------------------------|
E|---------------------------|8 volte
B|*----------------------------*|
E|------------------------------|
[ Tab from: http://www.guitartabs.cc/tabs/m/marlene_kuntz/la_lira_di_narciso_tab.html ]
Strofa (solo Gtr 1):
B|------------------|-----------------|-----------------|--------------------------|
A|*-----------------|-----------------|-----------------|-------------------------*|
E|------------------|-----------------|-----------------|--------------------------|
E|------------------|-----------------|-----------------|--------------------------|
B|*-----------------|-8-8-8-8-7-5-7-3-|-3-3-3-3-3-3-3-3-|/12-12-12-12-12-12-12-12-*|
E|--3-3-3-3-3-3-3-3-|-----------------|-----------------|--------------------------|

Durante il "reading" di Godano ci sono solo la tastiera di Rob Ellis (che nn riesco a trascrivere x chitarra)
e la chitarra di Riccardo Tesio che fa alcuni slide di questo tipo:
B|------------------------------|
A|------------------------------|
E|------------------------------|
E|-10/12-12---------------------|
B|-------------------10/12-12---|
E|------------------------------|

Ultime 2 strofe:
B|---------------------------|
A|*-------------------------*|
E|---------------------------|
E|------3-------3-------3----|
B|*---3---3---3---3---3---3-*|
E|--0-------2-------3--------|

tra le varie strofe si ripete l'intro.


Per commenti o correzioni la mia mail รจ fleafly_@libero.it
Comments