Marlene Kuntz - Il Vile Chords & Tabs

 

Il Vile Chords & Tabs

Marlene Kuntz Chords & Tabs

Version: 1 Type: Bass Tab 0 ratings
1 star 2 stars 3 stars 4 stars 5 stars
comments

Il Vile Bass Tab

MARLENE KUNTZ - IL VILE

BASS TAB

Accordatura 1/2 tono sotto

Strofa:
Gb|----------------------|
Db|*--------------------*|
Ab|*----------------3-3-*|
Eb|-4--4-4-1-1--1-1------|

Ritornello:
Gb|--------------------------|
Db|*------------------------*|
Ab|*------------------------*|
Eb|-3--1-0-0-0----3--1-0-0-0-|
[ Tab from: http://www.guitartabs.cc/tabs/m/marlene_kuntz/il_vile_btab.html ]
Dopo il rit:
Gb|------------------------|
Db|*-6-6-2-2-2-2h3-3-2----*|
Ab|*----------------------*|
Eb|------------------------|

Finale:
Gb|-----------------------|
Db|*---------------------*|
Ab|*-------------------------*|armonici
Eb|---------------------------|


Per commenti o correzioni la mia mail รจ fleafly_@libero.it
Comments