Marlene Kuntz - Cometa Chords & Tabs

 

Cometa Chords & Tabs

Marlene Kuntz Chords & Tabs

Version: 1 Type: Bass Tab 1 rating
1 star 2 stars 3 stars 4 stars 5 stars
comments

Cometa Bass Tab

   
MARLENE KUNTZ - COMETA

BASS TAB

Intro x2:
G|------------------------------------|
D|*----------------------------------*|
A|*----------------------------------*|
E|-3----------5-1---------1-----------|

Verse:
G|---------------------|---------------------|
D|*--------------------|--------------------*|
A|*--------------------|-1-1-1--1-1-1--1-1-1*|
E|-3-3-3--3-3-3--3-3-3-|---------------------|
[ Tab from: http://www.guitartabs.cc/tabs/m/marlene_kuntz/cometa_btab.html ]
Stacco 1:
G|--------|
D|--------|
A|--------|
E|-3------|

Stacco 2:
G|--------------------------|
D|--------------------------|
A|-/10-10-10-10-10-10-10-10-|
E|--------------------------|

Chorus:
G|-----------------|-----------------|
D|*5-5-5-5-5-5-5-5-|----------------*|
A|*----------------|-6-6-6-6-6-6-6-6*|
E|-----------------|-----------------|

Quindi ripetere tutto da capo


Per commenti o correzioni la mia mail รจ fleafly_@libero.it
Comments