Marlene Kuntz - Bellezza Chords & Tabs

 

Bellezza Chords & Tabs

Marlene Kuntz Chords & Tabs

Version: 1 Type: Tab 1 rating
1 star 2 stars 3 stars 4 stars 5 stars
comments

Bellezza Tab

   
MARLENE KUNTZ - BELLEZZA

Tuning E B E E A B

Intro / Outro:
B|------------------------------------------|
A|*----------------------------------------*|
E|------------------------------------------|
E|-----9-----9-----11-----9-----5-------4---|
B|*--9-----9-----9------9-----5---5---0----*|
E|-9-----9-----9------9-----5-------0-------|

Strofa:
B|-----------------------------------------------------|
A|*---------------------------------------------------*|
E|-----------------------------------------------------|
E|-----11-----11----11-----9-----4------4-----5------5-|
B|*--9------9-----9------9-----0------0-----5------5--*|
E|-9------9-----9------9-----0------0-----5------5-----|
[ Tab from: http://www.guitartabs.cc/tabs/m/marlene_kuntz/bellezza_tab.html ]
Ritornello:
B|---------------------------------------------------------|
A|*-------------------------------------------------------*|
E|--9--9--9-9-9-9-9---0--0--0-0-0-0-0---2-2-2--5-5-5-5-5---|
E|--9--9--9-9-9-9-9---0--0--0-0-0-0-0---2-2-2--5-5-5-5-5---|
B|*-9--9--9-9-9-9-9---0--0--0-0-0-0-0---2-2-2--5-5-5-5-5--*|
E|--9--9--9-9-9-9-9---0--0--0-0-0-0-0---2-2-2--5-5-5-5-5---|

Bridge:
B|--------------------------------------|
A|*------------------------------------*|
E|--7--7--7-7-7-7-7---5--5--5-5-5-5-5---|
E|--7--7--7-7-7-7-7---5--5--5-5-5-5-5---|
B|*-7--7--7-7-7-7-7---5--5--5-5-5-5-5--*|
E|--7--7--7-7-7-7-7---5--5--5-5-5-5-5---|

Godano Solo:
B|------------------------|
A|*----------------------*|
E|---6---4---2---/11-11---|
E|--0---0---0---0---------|
B|*----------------------*|
E|------------------------|


Per commenti o correzioni la mia mail รจ fleafly_@libero.it

Comments