Marlene Kuntz - Ape Regina Chords & Tabs

 

Ape Regina Chords & Tabs

Marlene Kuntz Chords & Tabs

Version: 1 Type: Bass Tab 1 rating
1 star 2 stars 3 stars 4 stars 5 stars
comments

Ape Regina Bass Tab

   
MARLENE KUNTZ - APE REGINA

BASS TAB

Drop-D tuning

Strofa / Outro (slap) distorto:
G|-----------------------|
D|*---------------------*|
A|*---------------------*|
D|--0---0-0----0---0-0---|

Parte tra le strofe (distorto):
G|-----------------|-----------------|-----------------|
D|-----------------|-----------------|-----------------|
A|-----------------|-----------------|-----------------|
D|-0-0-0-0-0-0-0-0-|-7-7-7-7-7-7-7-7-|-0-0-0-0-0-0-0-0-|

Chorus 1 (pulito):
G|-----------------|-----------------|-----------------|-----------------|
D|*----------------|-----------------|-----------------|----------------*|
A|*3-3-3-3-3-3-3-3-|-3-3-3-3-3-3-3-3-|-2-2-2-2-2-2-2-2-|-2-2-2-2-2-2-2-2*|x 5
D|-----------------|-----------------|-----------------|-----------------|

Post-chorus 1 (distorto sull'ultima nota):
G|---------------------|---------|
D|---------------------|---------|
A|-5-5-5-5-5-5-5-5-etc-|---------|
D|---------------------|-0-------|
                         |slap
[ Tab from: http://www.guitartabs.cc/tabs/m/marlene_kuntz/ape_regina_btab.html ]
Chorus 2 (pulito)
G|-----------------|-----------------|-----------------|-----------------|
D|*----------------|-----------------|-----------------|----------------*|
A|*3-3-3-3-3-3-3-3-|-3-3-3-3-3-3-3-3-|-2-2-2-2-2-2-2-2-|-2-2-2-2-2-2-2-2*|x 2
D|-----------------|-----------------|-----------------|-----------------|

G|-----------------|-----------------|-----------------|-----------------|
D|-----------------|-----------------|-----------------|-----------------|
A|-----------------|-----------------|-----------------|-----------------|
D|-0-0-0-0-0-0-0-0-|-0-0-0-0-0-0-0-0-|-2-2-2-2-2-2-2-2-|-2-2-2-2-2-2-2-2-|

G|-----------------|-----------------|-----------------|-----------------|
D|*----------------|-----------------|-----------------|----------------*|
A|*3-3-3-3-3-3-3-3-|-3-3-3-3-3-3-3-3-|-2-2-2-2-2-2-2-2-|-2-2-2-2-2-2-2-2*|x 3
D|-----------------|-----------------|-----------------|-----------------|

Post-chorus 2 (distorto):
G|--------|--------|----------------------|
D|--------|--------|----------------------|
A|--------|--------|----------------------|
D|-0------|-2------|-222222222222etc---0--|
                                       |slap


Per commenti o correzioni la mia mail รจ fleafly_@libero.it








Comments