Markus Hook Roll Band - Ape Man Chords & Tabs

 

Ape Man Chords & Tabs

Markus Hook Roll Band Chords & Tabs

Version: 1 Type: Tab

Ape Man Tab

   
-----------------------------------------------------------------------------
                             Ape Man - Markus Hook Roll Band
-----------------------------------------------------------------------------

Tabbed By: Me.

By: H.Vanda/G.Young

Album: Tales Of Old Grand-Daddy

Awesomness:Quite High.


Riff:                                  E D:    D A:      Fill:
e|----------------------------------|----------------|-------------------------|
B|----------------------------------|----------------|-------------------------|
G|----------------------------------|-9/7-------7/2--|-------------------------|
D|----------------------------------|-9/7-------7/2--|-------------------------|
A|-9--5-7-7---5-7-7--5-7-7--9-7-----|-7/5-------5/0--|-9-7---------------------|
E|0---------------------------9-7-5-|----------------|-----9-8-7-5-------------|

X: Muting.


Well I'm you're Ape man
(Well I'm you're ape man)
Well I'm you're Ape man
(Well I'm you're ape man)
[ Tab from: http://www.guitartabs.cc/tabs/m/markus_hook_roll_band/ape_man_tab.html ]
           x       x                              x       x
I've got my drum, I've got my rope(?), I've got my Knife
             X      X                         X         X
I beat my drum, I beat my chest, I beat my wife
                X              X                X         X
I've got my car, I've got my house, I've got my rope
            X              X                  X
You pick on me, I'll stick my gun right down your throat

E  D                                                    D   A
     It's not Unfamily if you tell me that I'm right,          but if you don't you 
wind up in a fight  (Fill)

Well I'm you're Ape man
(Well I'm you're ape man)
Well I'm you're Ape man
(Well I'm you're ape man)

(Play the riff over this verse)

I like to talk about the women that I've done
But I don't get no lovpex (?) cause' I pay most everyone
I'm not the other way as any man can see
(That's what you tell them honey, but that's not what you tell me)

E  D                                                 D  A
     I should have died out Ten Thousand years ago
But look around ya' and I wonder what you know

U -huh U-huh

(Fill)

Well I'm you're Ape man
(Well I'm you're ape man)
Well I'm you're Ape man
(Well I'm you're ape man)
Fade with weird noises.

--------------------------------------------
Comments & Corrections are welcome.
The mutings may not be top notch, but they should be ok.
You'll figure it out.