Mark Knopfler - You Dont Know Youre Born Chords & Tabs

 

You Dont Know Youre Born Chords & Tabs

Mark Knopfler Chords & Tabs

Version: 1 Type: Tab 0 ratings
1 star 2 stars 3 stars 4 stars 5 stars
comments

You Dont Know Youre Born Tab

Song: "You Don't Know You're Born"
Artist: Mark Knopfler
Album: "The Ragpicker's Dream"

End solo (starts at about 3'08"):
------------------------------------------------------------------------|
------------------------------------------------------------------------|
-5--5-------------------------------------------------------------------|
---5-8--5\3-5----5-----2h3-0--3-2-3/5----5--5-3-3p2------3--------2h3-0-|
----------------5-----3------1----------5--5-------5p3-5--3-5----3------|
---------------6-----3------------------------------------------3-------|
[ Tab from: http://www.guitartabs.cc/tabs/m/mark_knopfler/you_dont_know_youre_born_tab.html ]
--------------------------------------------------------------------------|
---------5---5-5-------------------------------5---5----------------------|
---------7p5-5-5h7---5-5-5-3-------------------7p5-5--5-5h7-5-------------|
--3-2----5---5-5--------5--------2h3-0--3-2----5---5--5-5---5-8-5-3h5p3h5-|
-1---3--------------------------3------1---3------------------------------|
-------------------------------3------------------------------------------|

--------------------------------------------------------------------|
------------------------5-6-5---------------------------------------|
-3---------------------------7-5-7-------------3--------------------|
--3-5-----2h3-0--3-2---------------8-5\3-5--5-3-5-----2h3-0--3-2----|
---------3------1---3--------------------------------3------1---3---|
--------3-------------------------------------------3---------------|

-----------------------------------------------------------------|
--5h6-5h6-5-3---------------------------------6-5----------------|
--5h7-5h7-5-3------------3-----------------------7-5----5-7-5----|
-5-----------5-3h5p3h5--5-5-----2h3-0--3-2----------8--5-----8---|
-----------------------5-------3------1---3----------------------|
------------------------------3----------------------------------|

-------------------|
-------------------|
-------------------|
---2h3-0--3-2------|
--3------1---3-----|
-3-----------------|

This should be accurate. Hope it's of some use.

-KEW
Comments