Mark Knopfler - Sons Of Scotland Chords & Tabs

 

Sons Of Scotland Chords & Tabs

Mark Knopfler Chords & Tabs

Version: 1 Type: Tab 0 ratings
1 star 2 stars 3 stars 4 stars 5 stars
comments

Sons Of Scotland Tab

Artist: Mark Knopfler
Album: "A Shot at Glory" Soundtrack
Song: "Sons of Scotland"

----------------------------------------------------------------------|
------------------------------7-4----------------------------4--------|
-4h6-6/8---4h6-6/8--6-4---------------3-4-6-----4h6-6/8---4h6-6-4-----|
-----------------------6-4-6------6---------4--------------------6----|
----------------------------------------------------------------------|
----------------------------------------------------------------------|

----------------------------------------------------------------------|
---------7-4-----4-7-4----4------4------7-4------7--------------------|
--------------3/4-----6--4-6-4----4--------6---4-6h8--4-----4-4h6-----|
-6p4h6------6----------------------6---4---------------6---6----------|
----------------------------------------------------------------------|
----------------------------------------------------------------------|
[ Tab from: http://www.guitartabs.cc/tabs/m/mark_knopfler/sons_of_scotland_tab.html ]
----------------------------------------------------------------------|
-------------7-4------7---------4-7-4------------4------4-4h5p4-------|
-6-8-6-4--------6---4-6h8-4--3/4-----6--4-4---4h6----4-6-------6-4----|
--------6---4--------------6--------------------------------------6---|
----------------------------------------------------------------------|
----------------------------------------------------------------------|

----------------------------------------------------------------------|
---------7-4--------------------4h5p4-4---4-5/7-5-4------------7-4----|
----------------3-4-6----4h6-6/8-----6----4-6/8-6-4-------------------|
-6p4h6------6--------4-----------------------------4h6-6p4h6------6---|
----------------------------------------------------------------------|
----------------------------------------------------------------------|

----------------------------------------------------------------------|
----4-7-4-----4-------------------------------------------------------|
-3/4-----6---4-6-4----------------------------------------------------|
----------------------------------------------------------------------|
----------------------------------------------------------------------|
----------------------------------------------------------------------|

This should be accurate. Hope it's of some use.

-KEW
Comments