Mark Knopfler - Minor Swing Chords & Tabs

 

Minor Swing Chords & Tabs

Mark Knopfler Chords & Tabs

Version: 1 Type: Tab 0 ratings
1 star 2 stars 3 stars 4 stars 5 stars
comments

Minor Swing Tab

   
This is the song played by Johnny Depp's character in the film 'Chocolat'.
The original is by Django Reinhardt,
 but this isn't it. 
It's the version of the song from the film. 
It's an acoustic played swing piece, it's played quite fast and takes some getting
used to but
 it sounds good especially if you play it with a strummed acoustic playing
back-up chords! listen to the song for details.
 the film doesnt
 have the complete version, but you get the idea

u = strum up 
d = strum down 
and the norms: 
/ = slide 
p = pull off 
h = hammer 
x = palm muted 
~ = tremelo 
b = bend and release 
(7) = ghost note 








            Key = 

            
  E |-----------------5-----------------5------------------5-------------|
  B |-------5-6p5---6---------5-6p5---6----------5-6p5---6---------------|
  G |-----5-------7---------5-------7----------5-------7-----------------|
  D |-5/7---------------5/7----------------5/7---------------------------|
  A |--------------------------------------------------------0-3-2-0-----|
  E |----------------------------------------------------------------1-0-|
      u d u d u d u d u d u d u
  E |-8-8-8-x-7-7-7-x-5-x-x-5-5-x-x-x---7p5-4-5-7-5-4-5-------------|
  B |-7-7-7-x-6-6-6-x-5-x-x-5-5-x-x-x-------------------6-----------|
  G |-8-8-8-x-7-7-7-x-5-x-x-5-5-x-x-x---------------------5-5-4-5~--|
  D |---------------------------------------------------------------|
  A |---------------------------------------------------------------|
  E |---------------------------------------------------------------|

  E |-10-8-7---------------------------------------------------------------|
  B |--------10-9---------------6-5-----------12-13-13/15-15~-13-12-10-12~-|
  G |-------------7-7/5-4-----4-----5-4-----10-----------------------------|
  D |---------------------4/6-----------7-12-------------------------------|
  A |----------------------------------------------------------------------|
  E |----------------------------------------------------------------------|

  E |--------------------------------------------------8-8/--|
  B |-10-12-10-----------------------------------------7-7/--|
  G |----------10-9/7----9b--------7-7~----------------8-8/--|
  D |-----------------10----7/9-10------10p9-7/6-9/(7)-------|
  A |--------------------------------------------------------|
  E |--------------------------------------------------------|

  E |-----------------------------------------------------------|
  B |-----------------5/6---------------------------------------|
  G |-----5-4-5-7-5-7-----7-5-5/7-7/5-4----------------4/5-4-5--|
  D |-5/7------------------------------5/6~-6h7-6-7-7~----------|
  A |-----------------------------------------------------------|
  E |-----------------------------------------------------------|

  E |---------------------------------------------------------------------|
  B |-5/6----------5/6----------6h8p6-------------------------------------|
  G |-----7-5-5/7~-----7-5-4/5~-------9-7-10-9-7-9--5h7h5-----------------|
  D |-----------------------------------------------------9-7-10-9-7-6/7~-|
  A |---------------------------------------------------------------------|
  E |---------------------------------------------------------------------|
[ Tab from: http://www.guitartabs.cc/tabs/m/mark_knopfler/minor_swing_tab.html ]
  E |---------------------------------------------------------------------|
  B |-10-10-12-10-13-13/12-12~-------------------13-12-10-10/12-12-10-10--|
  G |---------------------------------------------------------------------|
  D |-7--7--9--7--10-10/9--9~--12-12-10/12-12-12-10--9--7--7/9--9--7--7---|
  A |---------------------------------------------------------------------|
  E |---------------------------------------------------------------------|

  E |-----------------------------------------------------------------|
  B |----------------------------5-5-7-7/9-9-10-10-8/10-10-10/--------|
  G |-10-10-9-7/9-9-7-5-5-4-5-4---------------------------------------|
  D |----------------------------2-2-4-4/6-6-7--7--5/7--7--7/---------|
  A |-8--8--7-5/7-7-5-3-3-2-3-2---------------------------------------|
  E |-----------------------------------------------------------------|

(...2nd Guitar Solo...)

      u d u d u d u d u d u d u d u d
  E |-8-8-8-x-7-7-7-x-5-x-x-5-5-x-x-x---7p5-4-5-7-5-4-5-------------|
  B |-7-7-7-x-6-6-6-x-5-x-x-5-5-x-x-x-------------------6-----------|
  G |-8-8-8-x-7-7-7-x-5-x-x-5-5-x-x-x---------------------5-5-4-5~--|
  D |---------------------------------------------------------------|
  A |---------------------------------------------------------------|
  E |---------------------------------------------------------------|

  E |-10-8-7---------------------------------------------------------------|
  B |--------10-9---------------6-5-----------12-13-13/15-15~-13-12-10-12~-|
  G |-------------7-7/5-4-----4-----5-4-----10-----------------------------|
  D |---------------------4/6-----------7-12-------------------------------|
  A |----------------------------------------------------------------------|
  E |----------------------------------------------------------------------|

  E |---------------------------------------------------|
  B |-10-12-10------------------------------------------|
  G |----------10-9/7----9b--------7-7~-----------------|
  D |-----------------10----7/9-10------10p9-7/6-9/(7)--|
  A |---------------------------------------------------|
  E |---------------------------------------------------|

  E |-------------------------5-------5-5-----4-7-----4-7-7--------------------|
  B |-------5-------5-5-----6-------6-----4/5-----4/5--------------------------|
  G |-----5-------5-----5/7-----5/7--------------------------------------------|
  D |-5/7-----5/7--------------------------------------------------------------|
  A |-------------------------------------------------------0-3-2-0------------|
  E |---------------------------------------------------------------1-0-2-3-4--|

  E |--------------------------5-------5-5-----4-7-----4-7-7--------------4-5---|
  B |-------5--------5-5-----6-6-----6-6-6-4/5-----4/5--------5-4-5-6-7-8-------|
  G |-----5-5------5-5-5-5/7-----5/7--------------------------------------------|
  D |-5/7-----5/7---------------------------------------------------------------|
  A |---------------------------------------------------------------------------|
  E |---------------------------------------------------------------------------|
      d 
  E |-5----|
  B |-5----|
  G |-5----|
  D |-7----|
  A |-7----|
  E |-5----|
Comments