Mark Knopfler - Metroland Chords & Tabs

 

Metroland Chords & Tabs

Mark Knopfler Chords & Tabs

Version: 1 Type: Tab 0 ratings
1 star 2 stars 3 stars 4 stars 5 stars
comments

Metroland Tab

Artist: Mark Knopfler
Album: "Metroland" Soundtrack
Song: "Metroland"

Middle Solo:
--------------------------------------------------------|
---------------5h6p5--5h6-5------5----------------------|
-4-5-7b9r7h5--7------7-----7--5h7-5\4-------5h7b9r7p5---|
-------------------------------------7---5h7------------|
--------------------------------------------------------|
--------------------------------------------------------|

---------------------------------5---7-7h8--7h8p7-------|
--8-----8h10--------5------5-8b10---8------------8-8h10-|
-7-7/9------9-7--5h7-5h7--------------------------------|
--------------------------------------------------------|
--------------------------------------------------------|
--------------------------------------------------------|
[ Tab from: http://www.guitartabs.cc/tabs/m/mark_knopfler/metroland_tab.html ]
--------------------------------------------------------|
-5h6h8-6-5-------5-5---5---------5--5h6p5-------8-------|
----------7---7b9-------7p5h7-7b9--7-----7p5h7--7b9r7---|
--------------------------------------------------------|
--------------------------------------------------------|
--------------------------------------------------------|

Outtro:
--------------------------------------------------------|
----5h6p5--6p5------5-----------------8----8-8h10-8-----|
-7b9----------7--5h7-5----5h7b9r7p5--7-7/9--------------|
----------------------7---------------------------------|
--------------------------------------------------------|
--------------------------------------------------------|

-8~~---7-10-7h8--7----------------------------5-----5---|
------------------8-8/10--5h6h8-5h6p5-------5--5h8-5-5--|
-------------------------------------7---7b9------7-----|
--------------------------------------------------------|
--------------------------------------------------------|
--------------------------------------------------------|

--------------------------------------------------------|
-8---6h8p6\5-5------------------------------------------|
------------7-7--7b9r7----------------------------------|
--------------------------------------------------------|
--------------------------------------------------------|
--------------------------------------------------------|

This should be accurate. Hope it's of some use.

-KEW
Comments