Mark Knopfler - Boom Like That Chords & Tabs

 

Boom Like That Chords & Tabs

Mark Knopfler Chords & Tabs

Version: 1 Type: Tab 0 ratings
1 star 2 stars 3 stars 4 stars 5 stars
comments

Boom Like That Tab

   
title: boom, like that
by: mark knophler
album: shangri-la

capo on 3th.

|------------|-----------|---------------|--------0------|
|------0-----|--------0--|-------0-------|--------0------|
|------0-----|------0----|------2--------|------2---(0)--|
|----2---(2)-|----0------|----2----(2)---|----2----------|
|------------|-----------|--0------------|--3------------|
|--0---------|--3--------|---------------|---------------| 
                                                              about 5 times
|-------------|-----------|--------------|---------------|
|-------0-----|--------0--|----------1---|---------------|
|-------0-----|------0----|------0-------|---------------|
|----2----(2)-|----0------|----2---2-----|---------------|
|-------------|-----------|--3-----------|---------------|
|--0----------|--3--------|--------------|--3-2-0--------|


                           then a small solo
[ Tab from: http://www.guitartabs.cc/tabs/m/mark_knopfler/boom_like_that_tab.html ]
                    |--------------------------|
                    |--3p0---------------------|
                    |------0h2-----------------|
                    |----------0h2p0-----0-----|
                    |----------------2p0---2---|
                    |------------------------3-|

                    then continue the same thing like above!!


bridge: these boys have got this down....
       
       C-D-Em strum it yourself (easy)
       
       the last time you go like this:
       C-D- and then right to verse again.
     
       play verse over the solo 


       play with the strumming and picking 
       i`ve only given you a "blueprint"

      for example: |------------|----------|
                   |------0-----|--------0-|
                   |------0-----|--------0-|
                   |----2----2--|----0-----|
                   |------------|----------|
                   |--0---------|--3---3---|
enjoy!!
Comments