Marius Muller-westernhagen - Sexy Chords & Tabs

 

Sexy Chords & Tabs

Marius Muller-westernhagen Chords & Tabs

Version: 1 Type: Tab 0 ratings
1 star 2 stars 3 stars 4 stars 5 stars
comments

Sexy Tab

Sexy (Marius M?ller-Westernhagen) - Solopart

The whole thing is played with dropped D-tuning! I've tabbed it 99,9 % correctly. If there are any 
or the need to have it as Guitar Pro-File, send me a comment to

volkmar@low-budget-oldies.de


E||----------------------|----------------------|-------------------3--3--|
B||----------------------|----------------------|-------------------3--3--|
G||------5b---5r---3--0--|------0----0--3----5b-|----5--3--5--3--0--------|
D||----------------------|----------------------|-------------------------|
A||----------------------|----------------------|-------------------------|
D||----------------------|----------------------|-------------------------|
[ Tab from: http://www.guitartabs.cc/tabs/m/marius_muller_westernhagen/sexy_tab.html ]
--3----3--3--3----3-----|-----------------------|-----------------------6--|
--3----3--3--3----3-----|-----------------------|--8--6--------6-----------|
---------------------5b-|----5p3-5--3--------7--|--------7--7-----7--7-----|
------------------------|-----------------------|--------------------------|
------------------------|-----------------------|--------------------------|
------------------------|-----------------------|--------------------------|

--------5------------------|----------------------|--------------------------||
-----------------8---------|----------------------|--------------------------||
--7--7-----5/-7-----7\5-3--|--5b---5----3--0------|--------------------------||
---------------------------|----------------------|--3--2--0-----------------||
---------------------------|----------------------|-----------3--2--0--------||
---------------------------|----------------------|--------------------3r-0--||
Comments