Mario Winans - 3 Days Ago Chords & Tabs

 

3 Days Ago Chords & Tabs

Mario Winans Chords & Tabs

Version: 1 Type: Tab 0 ratings
1 star 2 stars 3 stars 4 stars 5 stars
comments

3 Days Ago Tab

   
-----------------------------------------------------------------
Mario Winans- 3 Days Ago
Album: Hurt No More
-----------------------------------------------------------------
Tabbed by: Roland Liscano
Email: hottubmannumbah1@crapmail.com
4/26/04

Tuning: EADGBE
G: 320003
C: 032010
D: 000232
Em:022000
E1:022200 <-| I don't know what to call this, so I just made up a name for it.

Tabber's note: 
The lyrics for the bridge are up for debate (and are probably wrong). Also, that E1 chord
thingy was the closest thing that sounded like the last chord in the bridge. That could
use some improvement. Otherwise, enjoy the song and the tab!

[Intro]
e|-----15-------12--------12-------10-------10-----8-------------|
B|--13----13-12--------11----11-10--------8----8-8-------8----7--|
G|---------------------------------------------------------------|
D|---------------------------------------------------------------|
A|---------------------------------------------------------------|
E|---------------------------------------------------------------|
[ Tab from: http://www.guitartabs.cc/tabs/m/mario_winans/3_days_ago_tab.html ]
[Verse]
e|----10-----7-----5-----5-7----10-----7-----5-----5-7-----------|
B|--8----8-7---7-3---3-5------8----8-7---7-3---3-5---------------|
G|---------------------------------------------------------------|
D|---------------------------------------------------------------|
A|---------------------------------------------------------------|
E|---------------------------------------------------------------|

e|-----15-------12--------12-------10-------10-----8-------------| <-|This part is
B|--13----13-12--------11----11-10--------8----8-8-------8----7--| <-|same as intro
G|---------------------------------------------------------------|
D|---------------------------------------------------------------|
A|---------------------------------------------------------------|
E|---------------------------------------------------------------|
(verse repeats)

[Chorus]
G     C             D             G
Yesterday you said that we could get away
G         C             D             G
The day before I was alone like any other day
C       G            D             G
3 days ago I wrote this song just for you
G       D         Em        C     G   D   
Will I ever get through to you

[Verse]

[Chorus]

[Bridge]
 Em             D                 G
I've waited so long to hear from you
                   C                     Em
I've stayed on my feet will I ever get through
           D               C
What can I do to make you stay
                D                    E1
My love is for you, your love is for me

[Verse]

[Chorus] 2X

[Outro] <-|Same as verse
Comments