Marilyn Manson - White Trash Chords & Tabs

 

White Trash Chords & Tabs

Marilyn Manson Chords & Tabs

Version: 2 Type: Tab 0 ratings
1 star 2 stars 3 stars 4 stars 5 stars
comments

White Trash Tab

the cords for this son are Am G & D just play along and you will no when to play them
the rest is this:

e|------------------------|----------------------| 
B|------------------------|----------------------|
G|------------------------|----------------------|
D|--------------5---7---5-|------------5-------5-|
A|--------------5---7---5-|------------5-------5-|
E|--0---3---5---3-0-5-0-3-|--0-3-5-3-5-3-0-3-5-3-|

e|---------------------|-------------| 
B|---------------------|-------------|
G|--------------7----9-|------7----9-|
D|---------7----7----9-|-7----7----9-|
A|---------7----5----7-|-7----5----7-|
E|-3-5-3-5-5-----------|-5-----------|
[ Tab from: http://www.guitartabs.cc/tabs/m/marilyn_manson/white_trash_tab_ver_2.html ]
e|------------------------------|----------------------| 
B|------------------------------|----------------------|
G|------------------------------|--------------77---9--|
D|---5---7---5--------5---7---5-|---------77---77---9--|
A|---5---7---5--------5---7---5-|---------77---55---7--|
E|-0-3-0-5-0-3-0-3535-3-0-5-0-3-|-0-3-5-3-55-----------|

e|--------------|---------=-------------| 
B|--------------|-----------------------|
G|-------77---9-|-----------------------|
D|-77----77---9-|------------5---7---5--|
A|-77----55---7-|------------5---7---5--|
E|-55-----------|--0-0-0-3-5-3-0-5-0-3--|

e|--------------------------|
B|--------------------------|
G|--------------------------|
D|---------5---7---5------7-|
A|---------5---7---5------7-|
E|--0-3535-3-0-5-0-3-0-3535-|

originaly tabbed by shleestak.
chords by cheeto
Comments