Marilyn Manson - White Trash Chords & Tabs

 

White Trash Chords & Tabs

Marilyn Manson Chords & Tabs

Version: 1 Type: Tab 0 ratings
1 star 2 stars 3 stars 4 stars 5 stars
comments

White Trash Tab

   
#----------------------------------PLEASE NOTE---------------------------------#
#This file is the author's own work and represents their interpretation of the #
#song. You may only use this file for private study, scholarship, or research. #
#------------------------------------------------------------------------------#

artysta: Marilyn Manson
utwór: "White Trash (remix by Tony F.Wiggins)"
album: "Smells Like Children", 1995

twórcą tego taba jestem ja, czyli: radek "zolv" adamiak 

legenda:
{A/0} - pojedyncza struna(A) / próg(0)
a| - przygaszenie strun po uderzeniu akordu
-0>3- lub -0<0- - opóźnienie lub przyspieszenie zagrania dźwięku w stosunku
   -0>do tempa zawsze tempem jest dźwięk po stronie szerokiego dziubka
   (np w tym przypadku: -0<3- tempem jest 3jka, a 0 trzeba zagrać na moment
   przed trójką tak, aby 3jka była w tempo a 0 nie...tak w ćwiartkę tempa

e|-------------0-------0-------0---------------0---------------0>--------
H|-------------0-------0-------0---------------0---------------0>--------
G|-------------0-------0-------0---------------0---------------0>--------
D|-------------0-------0-------0---------------0---------------0>--------
A|---------0---0-------0---0---0-----------0---0-----------0---0>--------
E|-0---3-------0---0---0-------0---0-0<3-------0---0---3-------0>0---0<3-

 a                C
Virgins sold in quantity
G
African-American heredity
I'm playin' my guitar and I'm feelin' fine
Why are all the niggers in the unemployment
   line?
e|-----0-------0-------0>--------------0-------0-------0>--------
H|-----0-------0-------0>--------------0-------0-------0>--------
G|-----0-------0-------0>--------------0-------0-------0>--------
D|-----0-------0-------0>--------------0-------0-------0>--------
A|-0---0-------0---0---0>----------0---0-------0---0---0>--------
E|-----0---0---0-------0>0---0<3-------0---0---0-------0>0---0<3-

a|    {a/0}|         C   C|
White Trash get down on your knees;
2G
Time for cake and sodomy.
a2     a|             C C|
White Trash get down on your knees;
G
Time for cake and
  2so  do  my
e|---------------------0-------0-------0>--------
H|---------------------0-------0-------0>--------
G|---------------------0-------0-------0>--------
D|---------------------0-------0-------0>--------
A|-----------------0---0-------0---0---0>--------
E|-0---0---3---4-------0---0---0-------0>0---0<3-

e|-----0-------0-------0>--------
H|-----0-------0-------0>--------
G|-----0-------0-------0>--------
D|-----0-------0-------0>--------
A|-0---0-------0---0---0>--------
E|-----0---0---0-------0>0---0>3-
[ Tab from: http://www.guitartabs.cc/tabs/m/marilyn_manson/white_trash_tab.html ]
 a               C
Teenage girl, a teenage queen;
  G
'Til she's on video -- A PORNO queen!
She likes to give head.
She likes it mean.
That's why she's my lit-
  tle que  en

a|-
E|-0---3---4-|

{a/0}   a|           C   C|
White TRASH get down on your knees;
 G
Time for cake and sodomy.
  a      a|           C   C|
WHITE THRASH get down ON your knees;
Time for cake and
 sodomy
e|-----------------0-------0-------0---------------0-------0-------0-
H|-----------------0-------0-------0---------------0-------0-------0-
G|-----------------0-------0-------0---------------0-------0-------0-
D|-----------------0-------0-------0---------------0-------0-------0-
A|-------------0---0-------0---0---0-----------0---0-------0---0---0-
E|-0---3---4-------0---0---0-------0---0-0>3-------0---0---0-------0-

e|--------------0-----0-------0-0<------------0-------0-------0-0<------
H|--------------0-----0-------0-0<------------0-------0---0---0-0<------
G|--------------0-----0-------0-0<------------0-------0-------0-0<------
D|--------------0-----0-------0-0<------------0-------0-------0-0<------
A|----------0---0-----0---0---0-0<--------0---0-------0-------0-0<------
E|-0-0>3--------0--0---0-------0-0<0-0<3-------0---0---0-------0-0<0-0<3-

a     a|                 C
White boy tryin' to get some behind:
   G
"Who says date rape isn't kind?"
Who's he gonna goad? Who's he gonna please?
IT don't matter, As long as she's
   on her knees.
E|-------------0-------0-------0---------------0-------0----------<       -
H|-------------0-------0-------0---------------0-------0----------<       -
G|-------------0-------0-------0---------------0-------0----------<       -
D|-------------0-------0-------0---------------0-------0----------a      a|           C   C|
WHITE THRASH get down on your knees;
 G
Time for cake and sodomy.
WHITE THRASH GET DOWN ON YOUR KNEES;
Time for cake and sodomy

e|-----0-------0-------0---0<------------0-------0-------0>------
H|-----0-------0-------0---0<------------0-------0-------0>------
G|-----0-------0-------0---0<------------0-------0-------0>------
D|-----0-------0-------0---0<------------0-------0-------0>------
A|-0---0-------0---0---0---0<--------0---0-------0-------0>------
E|-----0---0---0-------0---0<0---3-------0---0-- 0---0---0>0-0<3-

e|-----0-------0-------0>-----------0-------0-----
H|-----0-------0-------0>-----------0-------0-----
G|-----0-------0-------0>-----------0-------0-----
D|-----0-------0-------0>-----------0-------0-----
A|-0---0-------0---0---0>-------0---0-------0---0-
E|-----0---0---0-------0>0-0<3------0---0---0-----
Comments