Marilyn Manson - Vodevil Chords & Tabs

 

Vodevil Chords & Tabs

Marilyn Manson Chords & Tabs

Version: 1 Type: Tab 0 ratings
1 star 2 stars 3 stars 4 stars 5 stars
comments

Vodevil Tab

Okey, this is my first tab, go easy on me.

Artist: Marilyn Manson
Album: The golden age of grotesque
Tuning: Drop D
Tabbeb by: Christoffer Cavalli-Björkman

(I don't mind writing the strings that are not used)

Not-tuned-piano-thingy intro:


Pre-chorus: (When he goes "Kiss baby kiss")
G-------------------------------------9--7--9--7--9-7--------|
D--3-3-3-3-3-3-3-3-3-3-3-3-3-5-5-5-5--x--x--x--x--x-x--------|
A--3-3-3-3-3-3-3-3-3-3-3-3-3-5-5-5-5--7--5--7--5--7-5--------|
D--3-3-3-3-3-3-3-3-3-3-3-3-3-5-5-5-5--0--0--0--0--0-0--------|
Play that three times. The last time goes like this:
[ Tab from: http://www.guitartabs.cc/tabs/m/marilyn_manson/vodevil_tab.html ]
D--3-3-3-3-3-3-3-3-3-3-3-3-3-3-3-3-3--1-1-1-1-1-1-1-1-1-1----|
A--3-3-3-3-3-3-3-3-3-3-3-3-3-3-3-3-3--1-1-1-1-1-1-1-1-1-1----|
D--3-3-3-3-3-3-3-3-3-3-3-3-3-3-3-3-3--1-1-1-1-1-1-1-1-1-1----|

Chorus: (This isn't music...)

D--0-0-0-0----0-0-0-0----0-0-----0-3--0-3--0-5--0-5--0-6-|
A--0-0-0-0-5--0-0-0-0-5--0-0-5---0-3--0-3--0-5--0-5--0-6-|
D--0-0-0-0-0--0-0-0-0-0--0-0-0---0-3--0-3--0-5--0-5--0-6-|

Then you end on:
D--0-
A--0-
D--0-


Bridge: (That part when he sings "VIP ADD TRD violent shiny hate crime")

D--7-------------------7---------7--------7--------7---------

Outro:

D---11----------|
A---11----------|
D---11----------|


That's it, it's 100% correct. Mail me if there is any questions, nisseman2k@hotmail.com

//Cavalli
Comments