Marilyn Manson - User Friendly Chords & Tabs

 

User Friendly Chords & Tabs

Marilyn Manson Chords & Tabs

Version: 1 Type: Tab 0 ratings
1 star 2 stars 3 stars 4 stars 5 stars
comments

User Friendly Tab

   
User Friendly by Marilyn Manson
Guitarist: Twiggy Ramirez
Album: Mechanical Animals
Dif.: 7
Tabbed by Twiggy5

Intro (DJ noises)
You can re create the DJ noises by doing a pik scrape on the A string all the way up 
the neck

Verse - Just bass (“Use me when you wanna...”)

Pre-Chorus (Most likely octave higher)(“User friendly fucking...”)
b|--15\12--17\12--19\12-----15\12--17\12--19\12--12--|

Fill 1 (“She says...”)
G|-X-X-|
D|-X-X-|
A|-X-X-|

Chorus (Gtr. 1) (“I’m not in love..”)
G|-4-4-4-4-4-4-4-4-6-6-6-6-7-7-9-9--|
D|-4-4-4-4-4-4-4-4-6-6-6-6-7-7-9-9--|
A|-2-2-2-2-2-2-2-2-4-4-4-4-5-5-7-7--|

Chorus (Gtr. 2)
e|------------12-14-------------12-10--|
b|--12-11-10---------12-11-10----------|

Post-Chorus (Gtr. 1)
G|--9-9--9-9--11-11--11-11--|
D|--9-9--9-9--11-11--11-11--|
A|--7-7--7-7---9--9---9--9--|

Post-Chorus (Gtr. 2)
B|--12----------|
G|-------10^\9--|
            ^ 1/4 step then slide down

Bridge (“I’m not in love..”) (w/ vocader for vocals)
E|--7-----10--7-------7--------|
B|----7-8--------7-7-----------|
G|-----------------------9--7--|

End (Gtr. 1) - B5

End (Gtr. 2)
b|--12-------|
[ Tab from: http://www.guitartabs.cc/tabs/m/marilyn_manson/user_friendly_tab.html ]
Song Structre: -
User Friendly
Intro
Verse - Bass
Pre-Chorus
Fill 1
Chorus (Gtr. 1)/Chorus (Gtr. 2)
Post-Chorus (Gtr. 1)/Post-Chorus (Gtr. 2)
Verse - Bass
Pre-Chorus
Fill 1
Chorus (Gtr. 1)/Chorus (Gtr. 2)
Post-Chorus (Gtr. 1)/Post-Chorus (Gtr. 2)
Rest for DJ Shit
Bridge
Chorus (Gtr. 1)/Chorus (Gtr. 2)
End (Gtr. 1)/End (Gtr. 2)

Very emotional song...... If you have any comments, corrections or suggestions email 
me at ToXic345x@yahoo.ca
===========UsER FRiEnDLY   
MARILYN MANSON  
mechanical animals
tabbed by jonden@ix.netcom.com

verse
E-12--------12----12-----12--15----------
B---12-15-12--12----12-15--12--12--------
G----------------------------------------
D----------------------------------------
A----------------------------------------
E----------------------------------------

chorus
----------------------------------------
----------------------------------------
----------------------------------------
-9-----10--12-14--------------------------
-9-----10--12-14--------------------------
-7------9--10-12--------------------------

after chorus(bridge?)
----------------------------------------
----------------------------------------
-9-9-9-9-7-11-11-11-11-7----------------
-9-9-9-9-7-11-11-11-11-7----------------
-7-7-7-7-5-9 -9 -9 -9 -5----------------
----------------------------------------
Comments