Marilyn Manson - Use Your Fist And Not Your Mouth Chords & Tabs

 

Use Your Fist And Not Your Mouth Chords & Tabs

Marilyn Manson Chords & Tabs

Version: 2 Type: Tab 0 ratings
1 star 2 stars 3 stars 4 stars 5 stars
comments

Use Your Fist And Not Your Mouth Tab

   
Band: Marilyn Manson
Song: Use your fist and not your mouth
Album: The Golden Age of Grotesque
Transcriber: Robert Johnstone
Standard Tuning

The best songs on this album have to be Tainted Love, mOBSCENE and this one...

E------------------------------------------------|
B------------------------------------------------|
G---------------9b------------------7b-----------| Repeat two times then Drums brake in
D----6-6-6-6--9b--------6-6-6-6--7b--------------|
A----6-6-6-6--7b--------6-6-6-6--5b--------------|
E----4-4-4-4-------------4-4-4-4-----------------|

E------------------------------------------------|
B------------------------------------------------|
G---------------9b------------------7b-----------| Repeat two times with drums
D----6-6-6-6--9b--------6-6-6-6--7b--------------|
A----6-6-6-6--7b--------6-6-6-6--5b--------------|
E----4-4-4-4-------------4-4-4-4-----------------|

I am moving around...-Played with Drums, bass and keyboards

This is the black corrupt song...
E------------------------------------------------|
B------------------------------------------------|
G---------------9b------------------7b-----------|
D----6-6-6-6--9b--------6-6-6-6--7b--------------|
A----6-6-6-6--7b--------6-6-6-6--5b--------------|
E----4-4-4-4-------------4-4-4-4-----------------|

Use your fist and not your mouth...
E------------------------------------------------|
B------------------------------------------------|
G---------------9b------------------7b-----------|
D----6-6-6-6--9b--------6-6-6-6--7b--------------|
A----6-6-6-6--7b--------6-6-6-6--5b--------------|
E----4-4-4-4-------------4-4-4-4-----------------|

E------------------------------------|
B------------------------------------|
G------------------------------------|
D---6--7s6--6s7--7s6--6-7------------|
A---6--7s6--6s7--7s6--6-7------------|
E---4--5s4--4s5--5s4--4-5------------|

I'm on a campaign for pain...
E------------------------------------|
B------------------------------------|
G------------------------------------|
D---6--7s6--6s7--7s6--6-7------------|
A---6--7s6--6s7--7s6--6-7------------|
E---4--5s4--4s5--5s4--4-5------------|

 This is the black corrupt song...
E------------------------------------------------|
B------------------------------------------------|
G---------------9b------------------7b-----------|
D----6-6-6-6--9b--------6-6-6-6--7b--------------|
A----6-6-6-6--7b--------6-6-6-6--5b--------------|
E----4-4-4-4-------------4-4-4-4-----------------|

Use your fist and not your mouth...
E------------------------------------------------|
B------------------------------------------------|
G---------------9b------------------7b-----------|
D----6-6-6-6--9b--------6-6-6-6--7b--------------|
A----6-6-6-6--7b--------6-6-6-6--5b--------------|
E----4-4-4-4-------------4-4-4-4-----------------|
[ Tab from: http://www.guitartabs.cc/tabs/m/marilyn_manson/use_your_fist_and_not_your_mouth_tab_ver_2.html ]
I woke up today...
E-------------------------------------------|
B-------------------------------------------|
G-------------------------------------------|
D---6-6-6---9-9-9---4-4-4---3-3-3-----------|
A---6-6-6---9-9-9---4-4-4---3-3-3-----------|
E---4-4-4---7-7-7---2-2-2---1-1-1-----------|

I said no, this isn't your song...
E------------------------------------|
B------------------------------------|
G------------------------------------|
D---6--7s6--6s7--7s6--6-7------------|
A---6--7s6--6s7--7s6--6-7------------|
E---4--5s4--4s5--5s4--4-5------------|

Don't bring it, Don't sing it...
E----------------------------|
B----------------------------|
G----------------------------|This part is actually meant for bass but you can play it
D----------------------------| Can play it on electric
A------------5------------5--|
E---4-4-4-4-----4-4-4-4------|

This is the black corrupt song...
E------------------------------------------------|
B------------------------------------------------|
G---------------9b------------------7b-----------|
D----6-6-6-6--9b--------6-6-6-6--7b--------------|
A----6-6-6-6--7b--------6-6-6-6--5b--------------|
E----4-4-4-4-------------4-4-4-4-----------------|

Use your fist and not your mouth...
E------------------------------------------------|
B------------------------------------------------|
G---------------9b------------------7b-----------|
D----6-6-6-6--9b--------6-6-6-6--7b--------------|
A----6-6-6-6--7b--------6-6-6-6--5b--------------|
E----4-4-4-4-------------4-4-4-4-----------------|

This is the black corrupt song...
E------------------------------------------------|
B------------------------------------------------|
G---------------9b------------------7b-----------|
D----6-6-6-6--9b--------6-6-6-6--7b--------------|
A----6-6-6-6--7b--------6-6-6-6--5b--------------|
E----4-4-4-4-------------4-4-4-4-----------------|

Use your fist and not your mouth...
E------------------------------------------------|
B------------------------------------------------|
G---------------9b------------------7b-----------|
D----6-6-6-6--9b--------6-6-6-6--7b--------------|
A----6-6-6-6--7b--------6-6-6-6--5b--------------|
E----4-4-4-4-------------4-4-4-4-----------------|

This is the black corrupt song...
E------------------------------------------------|
B------------------------------------------------|
G---------------9b------------------7b-----------|
D----6-6-6-6--9b--------6-6-6-6--7b--------------|
A----6-6-6-6--7b--------6-6-6-6--5b--------------|
E----4-4-4-4-------------4-4-4-4-----------------|

I woke up today...I don't even want to be myself
E-------------------------------------------|
B-------------------------------------------|
G-------------------------------------------|
D---6-6-6---9-9-9---4-4-4---3-3-3-----------|
A---6-6-6---9-9-9---4-4-4---3-3-3-----------|
E---4-4-4---7-7-7---2-2-2---1-1-1-----------|

Keys:
s-slide
b-bend

the whole song is here and not one mistake, the song goes in order and all the lyrics 
here to guide you
Comments