Marilyn Manson - Use Your Fist And Not Your Mouth Chords & Tabs

 

Use Your Fist And Not Your Mouth Chords & Tabs

Marilyn Manson Chords & Tabs

Version: 1 Type: Tab 0 ratings
1 star 2 stars 3 stars 4 stars 5 stars
comments

Use Your Fist And Not Your Mouth Tab

   
Use Your Fist And Not Your Mouth - Marilyn Manson - The Golden Age of Grotesque
Tabbed by Tinboy

Tuning - Drop D

E B G D A D

b = 1/4 bend

Intro

|------------------------------------------------------------------------|
|------------------------------------------------------------------------|
|------------10b----------7b---------------------------------------------|
|---2-2-2-2--10b-2-2-2-2--7b---------------------------------------------| x3
|---2-2-2-2--8b--2-2-2-2--5b---------------------------------------------|
|---2-2-2-2------2-2-2-2-------------------------------------------------|

|----------------------------10------------------------------------------|
|------------------------------------------------------------------------|
|-----------10-------7---------------------------------------------------|
|---2-2-2-2-10--2-2--7--2-2----------------------------------------------|
|---2-2-2-2-8---2-2--5--2-2----------------------------------------------|
|---2-2-2-2-----2-2-----2-2----------------------------------------------|

|------------------------------------------------------------------------|
|------------------------------------------------------------------------|
|------------10b----------7b---------------------------------------------|
|---2-2-2-2--10b-2-2-2-2--7b---------------------------------------------| x3
|---2-2-2-2--8b--2-2-2-2--5b---------------------------------------------|
|---2-2-2-2------2-2-2-2-------------------------------------------------|

|------------------------------------------------------------------------|
|------------------------------------------------------------------------|
|-----------10b------7-------7-------------------------------------------|
|---2-2-2-2-10b-2-2--7--2-2--7-------------------------------------------|
|---2-2-2-2-8b--2-2--5--2-2--5-------------------------------------------|
|---2-2-2-2-----2-2-----2-2----------------------------------------------|

Verse

|------------------------------------------------------------------------|
|------------------------------------------------------------------------|
|------------------------------------------------------------------------|
|---x/x/x/x/x/x/x/x-x-x-x/x-x-x-x-----x\x\x\x\x\x\x\x-x-x-x\x-x-x-x------| x4
|------------------------------------------------------------------------|
|------------------------------------------------------------------------|
  mute the string with your finger and slide up or down, listen to the song
  you'll hear what your supposed to do.

Chorus (x2)

|------------------------------------------------------------------------|
|------------------------------------------------------------------------|
|------------10b----------7b---------------------------------------------|
|---2-2-2-2--10b-2-2-2-2--7b---------------------------------------------| x3
|---2-2-2-2--8b--2-2-2-2--5b---------------------------------------------|
|---2-2-2-2------2-2-2-2-------------------------------------------------|

|------------------------------------------------------------------------|
|------------------------------------------------------------------------|
|-----------10b------7-------7-------------------------------------------|
|---2-2-2-2-10b-2-2--7--2-2--7-------------------------------------------|
|---2-2-2-2-8b--2-2--5--2-2--5-------------------------------------------|
|---2-2-2-2-----2-2-----2-2----------------------------------------------|

2nd Verse

Gtr. 1
|------------------------------------------------------------------------|
|------------------------------------------------------------------------|
|------------------------------------------------------------------------|
|---x/x/x/x/x/x/x/x-x-x-x/x-x-x-x-----x\x\x\x\x\x\x\x-x-x-x\x-x-x-x------| x4
|------------------------------------------------------------------------|
|------------------------------------------------------------------------|
[ Tab from: http://www.guitartabs.cc/tabs/m/marilyn_manson/use_your_fist_and_not_your_mouth_tab.html ]
Gtr. 2
|------------------------------------------------------------------------|
|------------------------------------------------------------------------|
|------------------------------------------------------------------------|
|---2-2---3-3---2-2---0-0---2-2---3-3---2-2---2-2------------------------| x2
|---2-2---3-3---2-2---0-0---2-2---3-3---2-2---2-2------------------------|
|---2-2---3-3---2-2---0-0---2-2---3-3---2-2---2-2------------------------|

Chorus (x2)

|------------------------------------------------------------------------|
|------------------------------------------------------------------------|
|------------10b----------7b---------------------------------------------|
|---2-2-2-2--10b-2-2-2-2--7b---------------------------------------------| x3
|---2-2-2-2--8b--2-2-2-2--5b---------------------------------------------|
|---2-2-2-2------2-2-2-2-------------------------------------------------|

|------------------------------------------------------------------------|
|------------------------------------------------------------------------|
|-----------10b------7-------7-------------------------------------------|
|---2-2-2-2-10b-2-2--7--2-2--7-------------------------------------------|
|---2-2-2-2-8b--2-2--5--2-2--5-------------------------------------------|
|---2-2-2-2-----2-2-----2-2----------------------------------------------|

Bridge - "I woke up today and wished for tomorow"

|------------------------------------------------------------------------|
|------------------------------------------------------------------------|
|-------------5-5--5-5---------------------------------------------------|
|---2-2--2-2--5-5--5-5--7-7--7-7--7-7--7-7-------------------------------| x2
|---2-2--2-2--3-3--3-3--7-7--7-7--7-7--7-7-------------------------------|
|---2-2--2-2------------7-7--7-7--7-7--7-7-------------------------------|

Verse

Gtr. 1
|------------------------------------------------------------------------|
|------------------------------------------------------------------------|
|------------------------------------------------------------------------|
|---x/x/x/x/x/x/x/x-x-x-x/x-x-x-x-----x\x\x\x\x\x\x\x-x-x-x\x-x-x-x------| x6
|------------------------------------------------------------------------|
|------------------------------------------------------------------------|

Gtr. 2 (joins in after Gtr. 1 does above riff twice)
|------------------------------------------------------------------------|
|------------------------------------------------------------------------|
|------------------------------------------------------------------------|
|---2-2---3-3---2-2---0-0---2-2---3-3---2-2---2-2------------------------| x2
|---2-2---3-3---2-2---0-0---2-2---3-3---2-2---2-2------------------------|
|---2-2---3-3---2-2---0-0---2-2---3-3---2-2---2-2------------------------|

(Tacet)
|------------------------------------------------------------------------|
|------------------------------------------------------------------------|
|------------------------------------------------------------------------|
|---2-2-2-2--3--2-2-2-2--0--2-2-2-2--3--2-2-0-2-2-0----------------------| x2 
|---2-2-2-2--3--2-2-2-2--0--2-2-2-2--3--2-2-0-2-2-0----------------------|
|---2-2-2-2--3--2-2-2-2--0--2-2-2-2--3--2-2-0-2-2-0----------------------|

Chorus (x4)

|------------------------------------------------------------------------|
|------------------------------------------------------------------------|
|------------10b----------7b---------------------------------------------|
|---2-2-2-2--10b-2-2-2-2--7b---------------------------------------------| x3
|---2-2-2-2--8b--2-2-2-2--5b---------------------------------------------|
|---2-2-2-2------2-2-2-2-------------------------------------------------|

|------------------------------------------------------------------------|
|------------------------------------------------------------------------|
|-----------10b------7-------7-------------------------------------------|
|---2-2-2-2-10b-2-2--7--2-2--7-------------------------------------------|
|---2-2-2-2-8b--2-2--5--2-2--5-------------------------------------------|
|---2-2-2-2-----2-2-----2-2----------------------------------------------|

Bridge/Outro - "I woke up today and wished for tomorow"

|------------------------------------------------------------------------|
|------------------------------------------------------------------------|
|-------------5-5--5-5---------------------------------------------------|
|---2-2--2-2--5-5--5-5--7-7--7-7--7-7--7-7-------------------------------| x2
|---2-2--2-2--3-3--3-3--7-7--7-7--7-7--7-7-------------------------------|
|---2-2--2-2------------7-7--7-7--7-7--7-7-------------------------------|

Thats all, any queries email tinboy50@hotmail.com
Comments