Marilyn Manson - Tourniquet Chords & Tabs

 

Tourniquet Chords & Tabs

Marilyn Manson Chords & Tabs

Version: 4 Type: Tab 0 ratings
1 star 2 stars 3 stars 4 stars 5 stars
comments

Tourniquet Tab

   
tourniquet-marilyn manson

main riff
e-------------------|       |---|
B-4---4-4-2---0---0-|       |---|
G-----------3----0--|end on |---|
D-------------------|       |-5-|(i use an upstroke but it doesnt matter)
A-------------------|       |-5-|
E-------------------|       |-3-|
NOTE:on the 4 it could be 2 bent a whole step
but i just put a virbrato(or however you spell it)

[ Tab from: http://www.guitartabs.cc/tabs/m/marilyn_manson/tourniquet_tab_ver_4.html ]
chorus riff
e-----------------------------------------|
B-----------------15-15-15-15-15-15-15-15-|
G------------------x--x--x--x--x--x--x--x-|
D-5-5-5-5-5-5-5-5-12-12-12-12-12-12-12-12-|
A-5-5-5-5-5-5-5-5-------------------------|
E-3-3-3-3-3-3-3-3-------------------------|

e-------------------------------------------------|
B-16-16-16-16-16-16-16-16-------------------------|
G--x--x--x--x--x--x--x--x-15-15-15-15-15-15-15-15-|
D-13-13-13-13-13-13-13-13--x--x--x--x--x--x--x--x-|
A-------------------------13-13-13-13-13-13-13-13-|
E-------------------------------------------------|

thats it
Comments