Marilyn Manson - Tourniquet Chords & Tabs

 

Tourniquet Chords & Tabs

Marilyn Manson Chords & Tabs

Version: 3 Type: Tab 0 ratings
1 star 2 stars 3 stars 4 stars 5 stars
comments

Tourniquet Tab

"Tourniquet"
Marilyn Manson
Antichrist Superstar

Tuning - eBGDAD

riff 1.1
e---------------3-------1--------|
B-----------------------2b3r2----|
G---5b6r5--3--0---0--------------|
D--------------------------------|
A--------------------------------|
D--------------------------------|
[ Tab from: http://www.guitartabs.cc/tabs/m/marilyn_manson/tourniquet_tab_ver_3.html ]
riff 1.2
e------|-----|-----|-----|      e------|-----|-----|-----|
B------|-----|-----|-----|      B------|-----|-----|-----|
G------|--5--|-----|-----|  or  G------|-----|-----|-----|
D---1--|--5--|--5--|--5--|      D---4--|--1--|--5--|--5--|
A---1--|--3--|--5--|--5--|      A---x--|--x--|--x--|--x--|
D---1--|-----|--5--|--5--|      D---4--|--1--|--5--|--5--|

riff 2
e---------------------------------------------|
B---------------------------------------------|
G---------------------------------------------|
D---5----8----5----8----5----11----12----8----|
A---------------------------------------------|
D---------------------------------------------|

riff 3
e------|-----|-----|-----|
B------|-----|-----|-----|
G------|-----|-----|-----|
D---1--|--5--|--8--|--5--|
A---1--|--5--|--8--|--5--|
D---1--|--5--|--8--|--5--|

Song Structure
Intro
     riff 1.1 4x
     riff 1.2 4x
Verse 1
     riff 2
Chorus
     riff 3 2x
Verse 2
     no guitar
Chorus
Bridge
     555xxx strummed repeatedly
Chorus 2x
Comments