Marilyn Manson - The Speed Of Pain Chords & Tabs

 

The Speed Of Pain Chords & Tabs

Marilyn Manson Chords & Tabs

Version: 1 Type: Bass Tab 0 ratings
1 star 2 stars 3 stars 4 stars 5 stars
comments

The Speed Of Pain Bass Tab

Song: Speed of Pain
Artist: Manson
Written by: Twiggy,Gacy,Zim Zum
Lyrics by: Manson
Album: Mechical Animals
tabed by: Per "Pogo" Stenberg
pogo@pianotabs.net or fanta98@hotmail.comThe bass I have heard in along time! =)
This is my 2 bass tab (Strange same dogma).
If I'm useing the wrong strings don't scream
at me at don't even own a bass!


Riff 1   1.07

----------------------
----------------------
--------7------7-5h7--
5/--00----000---------Riff 2    (5.20)
(I know this is not bass, but...)

------
------
------
-5/15-Riff 3 
(Lie to me,cry to me, die with me)

-------------------
-------------------
--------7h9p7------
-3/11---------9p7--
There are some other stuff to but I can't hear them so well...
:)

===========
[ Tab from: http://www.guitartabs.cc/tabs/m/marilyn_manson/the_speed_of_pain_btab.html ]
          Reverend Twichet Tate
          Rev_twichet@yahoo.com
          
          Marilyn Manson
          Speed of Pain
          
          Part 1
          A--------------------------------------------12h14
          E---------5-----------5\-----0-0----0-0-0--14-----
          
          A---------0-----------------------------------12h14
          E---------------------5\-----0-0----0-0-0--14-----
          
          A-0--------------------------------
          E-------------5/--8-----------8\--
          
          A---------------------------------------------------
          E-----5---------------3-------2---3---0--------------
          
          Chorus 1 
          A-----------------------12h14|-----------------------------12h14-
          E-0---0----0-0----0---0------|0---8-----8---8-----8-8-----8------
          
          Chorus 2 "Lie to me?
          D----------------------------------------------------------------
          A----------------------------------------------------------------
          E-3-----------3/--11---------11\--8-----------8/--10-------------
          
          D---------------------------13-10---------------------------------
          A--------------------------------13-10----------------------------
          E-3-----------3/--11------------------11-8-----8/--10-------------
          
          After chorus 2
          A-------------------------------------------------8-10-8----8-10-8-
          E-4---------------2---------------1-----------1/---------10-------10
Comments