Marilyn Manson - The Reflecting God Chords & Tabs

 

The Reflecting God Chords & Tabs

Marilyn Manson Chords & Tabs

Version: 1 Type: Bass Tab 0 ratings
1 star 2 stars 3 stars 4 stars 5 stars
comments

The Reflecting God Bass Tab

   
Marilyn Manson
The Reflecting God 

Tabbed by Evan Bollverse

KEY:
r    =    rest          
/    = slide up to note
\    = slide down to note         
(==) = let ring

Riff 1(Verses and stuff)

g|--------------------------|  play this 27 times
d|--------------------------|
a|--------------------5-8-7-| 
e|0-0-0-0-0-0-r-0-0-0-------|

Riff 2("Scar, scar can you feel my power"....part)

g|-------------------|
d|-------------------|  then play this 4 times
a|-------------------|
e|0--0--6-6-6-5-3--3-|  

then play Riff 1, 4 times

Riff 3-1

g|-------------------------------|
d|-------------------------------| play this 2 times
a|7==============-10-10-10-8-7-5-|
e|0-0-0-0-0-0-r-0----------------|

Riff 3-2
[ Tab from: http://www.guitartabs.cc/tabs/m/marilyn_manson/the_reflecting_god_btab.html ]
g|----------------------------------------------------|
d|----------------------------------------------------| then play this once
a|3======0======--------7=============--10-10-10-8-7-5|
e|--------------6=======0-0-0-0-0-0-r-0---------------|

then play Riff 3-1, twice, then Riff 3-2 once again  
then play Riff 2, 8 times

Riff 4("No salvation, no forgiveness"...part)

g|--------------------------------|
d|--------------------------------| play this 22 times
a|7-7-7-8-8-8-7-7-7-8-8-8-7-7-5-5-|
e|--------------------------------|

Transition 1(Right between the switch from accoustic to mass distortion)

g|----------------|
d|----------------| go right into Riff 2
a|----------------|
e|-5--/--12--\--0-| 

then play Riff 2, 16 times

verse:

e|-0-0-0-0-0-0--0-0-0--5-6----|

chorus:

e|-0--0--5-5-5-5--6-6-6-6-----|


Comments