Marilyn Manson - The Not So Beautiful People Chords & Tabs

 

The Not So Beautiful People Chords & Tabs

Marilyn Manson Chords & Tabs

Version: 1 Type: Tab 0 ratings
1 star 2 stars 3 stars 4 stars 5 stars
comments

The Not So Beautiful People Tab

   
The Not So Beautiful People by Marilyn Manson
Guitarist: Twiggy Ramirez
Album: The Beautiful People Single II
Dif.: 6
Tabbed by Twiggy5

NOTE: Tune down to Drop D (D A D G B E)

Intro/Chorus (Gtr. 1) (Quitely)
D|--0-6-0-6-0--0-6-0-3-0--|
A|--0-6-0-6-0--0-6-0-3-0--|
D|--0-6-0-6-0--0-6-0-3-0--|

Intro (Gtr. 2)
E|--------------------17----------------------------17---------------|
B|--15------------------------------17-------------------------------|

Intro 2
D|-XXX-XXX--|-0-6-0-6-0--0-6-0-3-0--|-%-|-%-|-%-|
A|-XXX-XXX--|-0-6-0-6-0--0-6-0-3-0--|-%-|-%-|-%-|
D|-XXX-XXX--|-0-6-0-6-0--0-6-0-3-0--|-%-|-%-|-%-|

Intro 3/Last Chorus
D|-0-6-0-6-0--0-6-0-3-0--|-0-6-0-6-0--0-6-0-6-0--6-5-3-0--|
A|-0-6-0-6-0--0-6-0-3-0--|-0-6-0-6-0--0-6-0-6-0--6-5-3-0--|
D|-0-6-0-6-0--0-6-0-3-0--|-0-6-0-6-0--0-6-0-6-0--6-5-3-0--|

Intro 4/Pre-Chrous
G|-7--7-7-7-X---6--6-6-6-X---5--5-5-5-X---4--4-4-4-/--|
D|-7--7-7-7-X---6--6-6-6-X---5--5-5-5-X---4--4-4-4-/--|
A|-5--5-5-5-X---4--4-4-4-X---3--3-3-3-X---2--2-2-2-/--|

Verse
D|--XXX-3-0--|
A|--XXX-3-0--|
D|--XXX-3-0--|
[ Tab from: http://www.guitartabs.cc/tabs/m/marilyn_manson/the_not_so_beautiful_people_tab.html ]
Fill 1
D|----0-3-0--|
A|--X-0-3-0--|
D|--X-0-3-0--|

Fill 2
D|-0-6-0---0-3-0--|
A|-0-6-0---0-3-0--|
D|-0-6-0---0-3-0--|

Fill 3
D|-0-6-0-6-5-3-0--|
A|-0-6-0-6-5-3-0--|
D|-0-6-0-6-5-3-0--|

Bridge ("The beautiful people, the beautiful people, it’s all….")
D|--X-X-X-X-X-X--X-X-X--X-X-X--|
A|--X-X-X-X-X-X--X-X-X--X-X-X--|
D|--X-X-X-X-X-X--X-X-X--X-X-X--|

Verse 3/Last Chorus (Gtr. 2)
E|------------10^---------------10^-----------23^-----|
B|----------------------------------------------------|
G|---7------------------7-----------------------------|

Fill 4
D|-0-6--0-6-0--|
A|-0-6--0-6-0--|
D|-0-6--0-6-0--|

Song Structure: -
Nowhere…. Nowhere………….
Electronic Drums
Normal Drums
Bass N Drums
Intro (Gtr. 1)/Intro (Gtr. 2)
Rest
Intro 2
Intro 3
Intro 4
Drum Roll
Intro
Drums Shit
Verse (But more spaced Out)
Fill 1
Drums
Fill 2
Fill 3
Rest for Bass Verse
Bridge
Pre-Chorus
Chorus
Verse (Gtr. 1)/Verse 3 (Gtr. 2)
Chorus
Pre-Chorus
Chorus ("Hey!! Hey!! Hey!! Hey!!")
Verse
Fill 4
Chorus (Gtr. 1)/Last Chorus (Gtr. 2)

Alright there ya go. Yet another remix of the beautiful people. 
If you have any comments, corrections or suggestions email me at ToXic345x@yahoo.ca
Comments