Marilyn Manson - The Nobodies Chords & Tabs

 

The Nobodies Chords & Tabs

Marilyn Manson Chords & Tabs

Version: 2 Type: Tab 0 ratings
1 star 2 stars 3 stars 4 stars 5 stars
comments

The Nobodies Tab

   
 Just listen to the song and count how much he plays this part:
part 1
|-----------------------------------------
|-1-1--1-1--1-1---1-1--1-----1----1-1--1--
|--2----2----2-----2----2-1---2-1--2-----2 (x3)
|-----------------------------------------
|-0----0-----3-----3---------------0------
|---------------------0-----0---------3---
[ Tab from: http://www.guitartabs.cc/tabs/m/marilyn_manson/the_nobodies_tab_ver_2.html ]
intro:
|--------------------------------------------------------
|--------------------------------------------------------
|--------------------------------------------------------
|-7-7-7-7-7-7-7-7 10-10-10-10-10-10-10-10 2-2-2-2-2-2-2-2
|-7-7-7-7-7-7-7-7 10-10-10-10-10-10-10-10 2-2-2-2-2-2-2-2
|-5-5-5-5-5-5-5-5  8  8  8  8  8  8  8  8 0-0-0-0-0-0-0-0 

----------------
---------------- 
----------------
-7-7-7-7 3-3-3-3  (x2)
-7-7-7-7 5-5-5-5
-5-5-5-5 3-3-3-3

Now play again part 1 about (x2)

Play the intro about (x2)then:

|-0-        |-1-
|-1-        |-1-
|-0- (x8)   |-2-   (x8) (f)
|-2-        |-3-
|-0-        |-3-
|---        |-1-

Do this part 4 times then:
|------------------------
|------------------------
|------------------------
|-2----------------------
|-2----s7-5-3-0----------
|-0----------------------

s=slide up
after the slide thing u do again part 1.

after part 1 comes the intro..so listen to the song and you'll know when it comes...see yaa. John L
ICQ no. : 136314377
Comments