Marilyn Manson - The Nobodies Chords & Tabs

 

The Nobodies Chords & Tabs

Marilyn Manson Chords & Tabs

Version: 5 Type: Bass Tab 0 ratings
1 star 2 stars 3 stars 4 stars 5 stars
comments

The Nobodies Bass Tab

   
-------------------------------------------------------------------------------
    Marilyn Manson--The Nobodies--Holy Wood (In the Shadow Valley of Death)
-------------------------------------------------------------------------------
Tabbed By: Jake Brown jake_luvs_bex@hotmail.com

               Verse
G||----------------------------------||
D||----------------------------------||
A||----------33--33------------------||
E||--55--55----------00--00--55--33--|| 

               Verse
G||----------------------------------||
D||----------------------------------||
A||----------33--33------------------||
E||--55--55----------00--00--55--33--||

              Chorus
G||-------------------------------------||
D||-------------------------------------||
A||----------33333333-------------------||
E||-55555555----------00000000-55553333-||

             Chorus with fill
G||----------------------------------------------||
D||----------------------------------------------||
A||----------33333333----------------------------||
E||-55555555----------00000000-55552222--55--33--||

               Verse
G||----------------------------------||
D||----------------------------------||
A||----------33--33------------------||
E||--55--55----------00--00--55--33--|| 

               Verse
G||----------------------------------||
D||----------------------------------||
A||----------33--33------------------||
E||--55--55----------00--00--55--33--||

              Chorus
G||-------------------------------------||
D||-------------------------------------||
A||----------33333333-------------------||
E||-55555555----------00000000-55553333-||
[ Tab from: http://www.guitartabs.cc/tabs/m/marilyn_manson/the_nobodies_btab_ver_5.html ]
             Chorus
G||-------------------------------------||
D||-------------------------------------||
A||----------33333333-------------------||
E||-55555555----------00000000-55552222-||

         Bridge
G||-------------------||
D||-------------------||
A||-------------------||
E||-55555555/11111111-||

     Bridge
G||-------------------||
D||-------------------||
A||-------------------||
E||-55555555/11111111-||

     Bridge
G||-------------------||
D||-------------------||
A||-------------------||
E||-55555555/11111111-||

     Bridge with Fill
G||------------------------------------||
D||------------------------------------||
A||------------------------------------||
E||-55555555/11111111-0000000000000000-||

               Verse
G||----------------------------------||
D||----------------------------------||
A||----------33--33------------------||
E||--55--55----------00--00--55--33--|| 

               Verse
G||----------------------------------||
D||----------------------------------||
A||----------33--33------------------||
E||--55--55----------00--00--55--33--||

               Verse With Fill
G||---------------------------------------||
D||---------------------------------------||
A||----------33--33-----------------------||
E||--55--55----------00000000--5555/3333--|| 

             Chorus
G||-------------------------------------||
D||-------------------------------------||
A||----------33333333-------------------||
E||-55555555----------00000000-55552222-||

             End 
G||----------------||
D||----------------||
A||----------------||
E||-55--55--55--55-||
Comments