Marilyn Manson - The Love Song Chords & Tabs

 

The Love Song Chords & Tabs

Marilyn Manson Chords & Tabs

Version: 2 Type: Tab 0 ratings
1 star 2 stars 3 stars 4 stars 5 stars
comments

The Love Song Tab

   
ong: The Love Song
Artist: Marilyn Manson
Album: Holy Wood
As tabbed by Posthuman

Standard tuning

Verse A 
e-----13-12\---------13-12\-----------------------
B-------------------------------------------------
G-10------------10--------------------------------
D-------------------------------------------------
A-------------------------------------------------
E-------------------------------------------------


[ Tab from: http://www.guitartabs.cc/tabs/m/marilyn_manson/the_love_song_tab_ver_2.html ]
Chorus A               
e-------------------------------|------------------
B-------------------------------|------------------
G-------------------------------|------------------
D-6-0---0-3-5--0-6-0---0-3-5-3--|----0-------------
A-6-0---0-3-5--0-6-0---0-3-5-3--|----0-------------
E-6-0---0-3-5--0-6-0---0-3-5-3--|----0-------------
("Do you love your guns?")

Riff A (Guitar 1)
e--------------------------------------------------
B--------------------------------------------------
G--------------------------------------------------
D-0-0-0-0-2-2-2-2-3-3-3-3-7-7-7-7------------------
A-0-0-0-0-2-2-2-2-3-3-3-3-7-7-7-7------------------
E-0-0-0-0-2-2-2-2-3-3-3-3-7-7-7-7------------------



Verse B 
e-------------------------------------------------
B--7-/--9-/-10-/-2--------------------------------
G-10-/-12-/-13-/-5--------------------------------
D--x-/--x-/--x-/-x--------------------------------
A--x-/--x-/--x-/-x--------------------------------
E--x-/--x-/--x-/-x--------------------------------
("Got love songs in my head killing us away")
Comments