Marilyn Manson - The Love Song Chords & Tabs

 

The Love Song Chords & Tabs

Marilyn Manson Chords & Tabs

Version: 1 Type: Tab 0 ratings
1 star 2 stars 3 stars 4 stars 5 stars
comments

The Love Song Tab

   
Marilyn Manson -The Love Song.
Tabbed by Pyry  www.keinopyry@hotmail.com.
  
h=hammer
/=slide up
\=slide down

--------------------------------------
--------------------------------------
--------------------------------------
--6--------------6--------------------
--4-5---2-3-2--5-4-5--2h-3-2h-3-------
----3---0-1-0--3---3--0h-1-0h-1-------
[ Tab from: http://www.guitartabs.cc/tabs/m/marilyn_manson/the_love_song_tab.html ]
Fill1
-----‌-------------------------------------------
-----‌-------------------------------------------
-----‌-------------------------------------------
-----‌-------------------------------------------
--5--‌------5-5-5-5-7-7-7-7-8-8-8-8/12-12-12-12--
--3--‌------3-3-3-3-5-5-5-5-6-6-6-6/10-10-10-10--
Let ring.

--3-3-3-3-5-5-5-5-6-6-6-6-6\-----------
------------------------------3-3-3-3--
---------------------------------------
---------------------------------------
---------------------------------------
---------------------------------------

---------------------------------------------
---------------------------------------------
---------------------------------------------
---------------------------------------------
--5-5-5-5-X-X-7-7-7-7-8-8-8-X-8/12-12-12-12--
--3-3-3-3-X-X-5-5-5-5-6-6-6-X-6/10-10-10-10--

 
:: Ultimate Guitar Archive :: 
http://www.ultimate-guitar.com
Comments