Marilyn Manson - The Kkk Took My Baby Away Chords & Tabs

 

The Kkk Took My Baby Away Chords & Tabs

Marilyn Manson Chords & Tabs

Version: 1 Type: Tab 0 ratings
1 star 2 stars 3 stars 4 stars 5 stars
comments

The Kkk Took My Baby Away Tab

Song: The KKK Took My Baby Away
Artist: Marilyn Manson
Album: The Ramones Tribute Album
As tabbed by Joe Muggah

Tuned down 1/2 step


Riff 1 (Guitar 1)
eb---------------------------------------------------------
Bb--13--12--10---13--12--10---13--13--12--10---13--12--10--
Gb---------------------------------------------------------
Db---------------------------------------------------------
Ab---------------------------------------------------------
Eb---------------------------------------------------------

(continued)
eb---------------------------------------------------------
Bb--13--12--10---13^---15^---------------------------------
Gb---------------------------------------------------------
Db---------------------------------------------------------
Ab---------------------------------------------------------
Eb---------------------------------------------------------


Riff 2
eb---------------------------------------------------------
Bb---------------------------------------------------------
Gb--14--------12------9------14---------12------9----------
Db---x---------x------x-------x----------x------x----------
Ab--12--------10------7------12---------10------7----------
Eb---------------------------------------------------------


Riff 3
eb-------8----------8---------8----------8-----------------
Bb-------5----------5---------5----------5-----------------
Gb---------------------------------------------------------
Db-----7----7-----7---7-----7----7-----7----7--------------
Ab---------------------------------------------------------
Eb--5----------5----------5----------5---------------------

[ Tab from: http://www.guitartabs.cc/tabs/m/marilyn_manson/the_kkk_took_my_baby_away_tab.html ]
Verse
eb-------8----------8---------5----------5----------2------
Bb-------5----------5---------2----------2----------3------
Gb------------------------------------------------4----4---
Db-----7----7-----7---7-----4----4-----4----4--------------
Ab----------------------------------------------2----------
Eb--5----------5----------2----------2---------------------

(continued)
eb-------2----------2-----------3----------3---------------
Bb-------3----------3-----------0----------0---------------
Gb-----4----4-----4----4-----------------------------------
Db----------------------------2----2-----2---2-------------
Ab--2----------2-------------------------------------------
Eb-------------------------0----------0--------------------


Chorus
eb-------8----------8----------5----------7----------------
Bb-------5----------5----------6----------8----------------
Gb---------------------------7----7-----9----9-------------
Db-----7----7-----7----7-----------------------------------
Ab------------------------5----------7---------------------
Eb--5----------5-------------------------------------------


Bridge
eb------5----------7----------5----------7----------5------
Bb------6----------8----------6----------8----------6------
Gb----7----7-----9----9-----7----7-----9----9-----7----7---
Db---------------------------------------------------------
Ab--5---------7----------5----------7----------5-----------
Eb---------------------------------------------------------

(continued)
eb------7----------2----------7----------7-----------------
Bb------8----------3----------8----------8-----------------
Gb----9----9-----4----4-----9----9-----9----9--------------
Db---------------------------------------------------------
Ab--7---------2----------7---------------------------------
Eb---------------------------------------------------------


Outro
eb-------8----------8--------------------------------------
Bb-------5----------5--------------------------------------
Gb---------------------------------------------------------
Db-----7----7-----7---7------------------------------------
Ab---------------------------------------------------------
Eb--5----------5----------5--------------------------------


Riff 1
Riff 1, 2
Riff 3
Verse 
Chorus
Riff 3
Riff 2
Bridge
Chorus, Riff 2
Verse
Chorus, Riff 1
Chorus, Riff 1, Riff 2
Outro
Comments